Faget-KoRn
By SlipNuTs
Riff 1
d||-------------------------||4x
a||-------------------------||
F||-------------------------||
C||------------------10-10--||
G||-------------------9--9--||
D||-------7-----------8--8--||
A||--0-0--0--00-00-0--------||
Riff2
d||-------------------------||3x
a||-------------------------||
F||-------------------------||
C||------------------10-10--||
G||-------------------9--9--||
D||-------------------8--8--||
A||--0-00-0--00-0-00--------||
Riff 3
d||-------------------------||1x
a||-------------------------||
F||-------------------------||
C||-------------------------||
G||-------------------------||
D||-------------------------||
A||--0-00-0--00-0-00--------||
Riff 4
d||-----------------||1x
a||-----------------||
F||-----------------||
C||-----------------||
G||-----------------||
D||--787------------||
A||------989--------||
Riff 5
d||-----------------------------------------------------||4x
a||-----------------------------------------------------||
F||-----------------------------------------------------||
C||------------------16-16------------------------------||
G||------------------15-15------------------------------||
D||-------7----------14-14---------7-----787------------||
A||--0-0--0--00-00-0-13-13---0-0--0--00-----989---------||
Riff 6 a
d||-----------------------||8x
a||-----------------------||
F||-----------------------|| listen to the song to get the pattern for this part
C||-----------------------||
G||-----------------------||
D||----777777777-8888-----||
A||-----------------------||
Riff 6 b 1......... 2............
d||-------------------------7------------||--------0----||1x
a||--13----11------\4---------------6----||------0---2--||
F||----------------------7-------4-------||----10-------|| play Riff 6 a and riff 6b together
C||--------------------------------------||---9---------||
G||--------------------------------------||-------------||
D||--------------------------------------||-------------||
a
d||-----------------------------------------------------||4x
a||-----------------------------------------------------||
F||-----------------------------------------------------||
C||------------------16-16------------------------------||
G||------------------15-15------------------------------||
D||-------7----------14-14---------7-----787------------||
A||--0-0--0--00-00-0-13-13----0-0--0--00-----989--------||
d||-----------------------||8x
a||-----------------------||
F||-----------------------||
C||-----------------------||
G||-----------------------||
D||------7777777778888----||
A||-----------------------||
1......... 2............
d||-------------------------7------------||--------0----||1x
a||--13----11------\4---------------6----||------0---2--||
F||----------------------7-------4-------||----10-------||
C||--------------------------------------||---9---------||
G||--------------------------------------||-------------||
D||--------------------------------------||-------------||
A||--------------------------------------||-------------||
Riff 5
d||-----------------------------------------------------||4x
a||-----------------------------------------------------||
F||-----------------------------------------------------||
C||------------------16-15------------------------------||
G||------------------15-15------------------------------||
D||-------7----------14-14---------7-----787------------||
A||--0-0--0--00-00-0-13-13----0-0--0--00-----989--------||
Riff 7
a||--------------------------||
F||--------------------------||3x
C||-------------------16-16--||
G||-------------------15-15--||
D||--7----7---7---7---14-14--||
A||--0-00-0-0-0-0-0-0-13-13--||
Riff 6 a
d||-----------------------||8x
a||-----------------------||
F||-----------------------||
C||-----------------------||
G||-----------------------||
D||--------7777777778888--||
A||-----------------------||
Riff 6 b 1......... 2............
d||-------------------------7------------||--------0----||1x
a||--13----11------\4---------------6----||------0---2--||
F||----------------------7-------4-------||----10-------||
C||--------------------------------------||---9---------||
G||--------------------------------------||-------------||
D||--------------------------------------||-------------||
A||--------------------------------------||-------------||
Riff 5
d||-----------------------------------------------------||4x
a||-----------------------------------------------------||
F||-----------------------------------------------------||
C||------------------16-16------------------------------||
G||------------------15-15------------------------------||
D||-------7----------14-14---------7-----787------------||
A||--0-0--0--00-00-0-13-13----0-0--0--00-----989--------||
Riff 7
a||--------------------------||
F||--------------------------||2x
C||-------------------16-16--||
G||-------------------15-15--||
D||--7----7---7---7---14-14--||
A||--0-00-0-0-0-0-0-0-13-13--||
Riff 8
F||-------------------||16x
C||-------------------||
G||-------------------||
D||------7-----8--8---||
A||--0000---000-00----||
Riff 9
d||-------------------||8x pm
a||-------------------||
F||-------------------||
C||-------------------||
G||------9-----10-10--||
D||------7-----8--8---||
A||--0000---000-00----||
Riff 10
d||--------------------||10x
a||--------------------||
F||--------------------||
C||--------------------||
G||------4------4-5-/4-||
D||--2---2-3----2-3-/2-||
A||--0-----1-----------||
Riff 6 a
a||-----------------------||8x
F||-----------------------||
C||-----------------------||
G||-----------------------||
D||--------7777777778888--||
A||-------[----pm-------]-||
Riff 6 b
a||-----------------------------------------------------||4x
F||-----------------------------------------------------||
C||------------------16-16------------------------------||
G||------------------15-15------------------------------||
D||-------7----------14-14---------7-----787------------||
A||--0-0--0--00-00-0-13-13----0-0--0--00-----989--------||
Riff 11
d||-------------------------||8x
a||-------------------------||
F||-------------------------||
C||------------------16-16--||
G||------------------15-15--||
D||------------------14-14--||
A||--0-00-0--00-0-00-13-13--|| i messed up a little so a couple strings are missing but that dosent matter




Ваше мнение



Капча