this tab is 100% correct i saw head and monkey play it o the korn dvd

korn tuning 7- string D A F C G D A/ one step down
intro
D--------------------------------
A--------------------------------
F------------------11-11---------
C------------------10-10--------- 3x then
G------------------9--9----------
D---------7--------8--8----------
A---0-0-0-0--00-00---------------
this
D--------------------------------
A--------------------------------
F--------------------------------
C--------------------------------
G-------------------------9-7-9-- 9-7-9
D---------7--------7-9-7---------mute-7-9-7
A---0-0-0-0--00-00---------------
verse
D--------------------------------
A--------------------------------
F--17-15-------------16----------
C---------13hold-12------15-16---
G--------------------------------
D--------------------------------
A--------------------------------
chorus
D--------------------------------
A--------------------------------
F------------------11-11---------
C------------------10-10---------
G------------------9--9----------
D---------7--------8--8----------
A---0-0-0-0--00-00---------------

D--------------------------------
A--------------------------------
F--------------------------------
C--------------------------------
G-------------------------9-7-9--
D---------7--------7-9-7---------
A---0-0-0-0--00-00---------------

A--------------------------------
F------------------11-11---------
C------------------10-10---------
G------------------9--9----------4x
D---------7--------8--8----------
A---0-0-0-0--00-00---------------

bridge
D--------------------------------
A--------------------------------
F--------------------------------
C--------------------------------
G--------------------------------
D-------7-------8---8------------
A---000---00-000--0---0----------

D--------------------------------
A--------------------------------
F--------------------------------
C--------------------------------
G-------9-------10--10-----------
D-------7-------8---8------------
A---000---00-000--0---0----------

D--------------------------------
A--------------------------------
F---7--5----7--8--5--------------
C---4--2----4--5--2--------------
G--------------------------------
D--------------------------------
A--------------------------------

D--------------------------------
A--------------------------------
F--------------------------------
C--------------------------------
G--------------------------------
D---------7--------8888----------
A---0-0-0-0--00-00---------------
CHORUS
D--------------------------------
A--------------------------------
F------------------11-11---------
C------------------10-10---------
G------------------9--9----------
D---------7--------8--8----------
A---0-0-0-0--00-00---------------

D--------------------------------
A--------------------------------
F--------------------------------
C--------------------------------
G-------------------------9-7-9--
D---------7--------7-9-7---------
A---0-0-0-0--00-00---------------




Ваше мнение



Капча