Dirty by KoRn
Guitarist: Munky & Head
Album: Issues
Dif.: 7
Tabbed by Twiggy5
NOTE: Tune down 1 whole step A D G C F A D
Intro (Gtr. 1) (clean w/whammy pedal)
d|-------------------8-|-------------------8-|
Verse (Gtr. 1) (w/whammy pedal)
d|--------|-------------|-----------8--7--|--------------------|
a|--------|-------------|--------10-------|-----8--7-----7--7--|
Verse (Gtr. 2) (clean w/ fast tremelo effect)
d|-15--------|-------------|-------------|---------------|
Pre-Chorus (Gtr. 1) (w/ dist. & wah wah) (“I’m out here, by myself..”)
A|-7---7---7--7--7----7--7^-----7-|-6---6-----6---6-------6--|
^ full step and hold
Pre-Chorus (Gtr. 2) (clean w/ fast tremelo effect)
A|---------------------------------16--|--------------------------------16--|
F|--------16----17----16--------16----|------16----17----16--------16-----|
C|-14-------------------------14-------|-14----------------------14--------|
Chorus (Both Guitars) (w/ heavy dist.) (“Ready to blow my head off...”)
G|---------12-------------------15----------15--|
D|-12-0-12----11-0-12-0-13-0-13----13-0-13------| 4x
Post-Chorus/Verse 2 (Gtr.1) (After “I just wanna laugh again..”)
D|--0-0--0-0------0-0-0-0-0--|--0-0-----0-0---0-0--|
Post-Chorus/Verse 2 (Gtr. 2)
D|--------------------0--0--|--------0----------0---------|
Post-Chorus 2 (Gtr. 2)
D|-0-0-0-0-0-0-0-0-|-0-0-0-0-0-0----0-0-|
Post-Chorus 2 Part 2 (Gtr. 2)(gradually crescendo)
D|-0-0-0-0-0-0-0-0-0-0-0-0-0-0-0-0--|
Bridge (Gtr. 1) (w/ wah & fast tremelo effect)
d|-14----------------15------------|-------------------------7--|
a|---------------------------------|-0-----------------------0--|
Bridge 2 (Gtr. 2) (Clean)
G|-----------16h17--------19--------17----------16h17-----------16h17--|
D|-------14------------17--------15---------14---------------14--------|
A|---14-------------15--------15---------14---------------14-----------|
Outro - Do Pre-Chorus Part 2 (Gtr. 2)
Song Structre: -
Intro (bass n drums)
Intro (Gtr. 1)
Verse (Gtr. 1)/Verse (Gtr. 2)
Pre-Chorus (Gtr. 1)/Pre-Chorus (Gtr. 2)
Chorus (Both Guitars)
Post-Chorus (Gtr. 1)/Post-Chorus (Gtr. 2)
Verse (Gtr. 1)/Verse (Gtr. 2)
Pre-Chorus (Gtr. 1)/Pre-Chorus (Gtr. 2)
Chorus (Both Guitars)
Post-Chorus Part 2 (Gtr. 2)
Bridge (Gtr. 1)/Bridge (Gtr. 2)
Chorus (Both Guitars) (“You dirty little FUCK!!!!”)
Chorus (Both Guitars) (“I hurt so bad...”)
Outro (Gtr. 2)
Really FUCKing heavy song. Very emotionl. My favorite on the album.
Any comments, corrections or suggestions email me at [email protected]
===========
Dirty - Korn
Transcribed By: Sam Sensabaugh ([email protected])
Tuned Down One Half Whole Step (DGCFAd)
(Drum and Bass Intro..then Guitar Comes in)
(Fill 1)
d ||----------|
A ||----------|
F ||--4^4-----|
C ||----------|
G ||----------|
D ||----------|(note: ^=bend)

Throughout the Song You hear a little Bend every now and again.
(Verse)
(Guitar 1)
d ||----------------------|
A ||----------------------|
F ||----------------------|
C ||--2-------------------|
G ||--2-------------------|
D ||--0-------------------| (Play this chord with Wah Pedal)
(Chorus)
(Guitar 1)
d ||----------------------|
A ||----------------------|
F ||----------------------|
C ||--2--2--2-------------|
G ||--2--2--2---0/2--2/3--|
D ||--0--0--0-------------|
(Guitar 2)
d ||------------------------|
A ||------------------------|
F ||-----4--5--4--0--9--10--|
C ||--2---------------------|
G ||------------------------|
D ||------------------------|(Whammy Effect)
(Fill 2)
(Guitar 2)
d ||-------------||-------------------------------------|
A ||-------------||-------------------------------------|
F ||--4--5--6--7-||-4--5--6--7------5--------4----------|
C ||-------------||-------------------4--5-----4--5-----|
G ||-------------||-------------------------------------|
D ||-------------||-------------------------------------|


Ваше мнение



Капча