Song:Did my time
Artist:Korn
Album: Take a look in the mirror
by Monkee
I used a 7 string guitar for this tab.
Intro (guitar 1)
D|-----------------------------------------------|
A|-----------------------------------------------|
F|-----------------------------------------------|
C|---02220222022202220222022202220222------------|
G|-----------------------------------------------|
D|-----------------------------------------------|
A|-----------------------------------------------|
intro(guitar 2) try this while guitar 1 plays the intro
(not all the time like guitar 1)
D|-----------------------------------------------|
A|-----------------------------------------------|
F|-----------------------------------------------|
C|-----------------------------------------------|
G|-----------------------------------------------|
D|-----------------------------------------------|
A|--3666366636663666-----------------------------|
chorus and after davis begins singingin the intro(both guitar) at the first time
try with a whammy(xp 100)
D|-----------------------------------------------|
A|-----------------------------------------------|
F|-----------------------------------------------|
C|--222------------------------------------------|
G|-----222---------------------------------------|
D|--------333---22-------------------------------|
A|-----------333---------------------------- ----|
Verse( both guitar)
D|-----------------------------------------------|
A|-----------------------------------------------|
F|-----------------------------------------------|
C|-----------------------------------------------|
G|-----------------------------------------------|
D|-----------------------------------------------|
A|--355355355355-366366366366--------------------|
Interlude(guitar 1) clean with a slow tone
D|-----------------------------------------------|
A|-----------------------------------------------|
F|-----------------------------------------------|
C|-----------------------------------------------|
G|----------------------------------3------------|
D|----1-0-----1-0-------1-0-----1-0--------------|
A|--3-------3-----1---3-------3------------------|
Interlude(guitar 2) With a stronger tone than guitar one
and use a delay if you want(slow tone delay).
D|-----------------------------------------------|
A|-----------------------------------------------|
F|----------------------------------5------------|
C|----3-2-----3-2-------3-2-----3-2--------------|
G|----------------3------------------------------|
D|-----------------------------------------------|
A|--3-------3---------3-------3------------------|
The the heavy part
D|-----------------------------------------------|
A|-----------------------------------------------|
F|-----------------------------------------------|
C|-----------------------------------------------|repeat many time as
G|---5--55-5-5-6-4-------------------------------|you hear in the song
D|---5--55-5-5-6-4-------------------------------|
A|---3--33-3-3-4-2-------------------------------|
Outro(both guitar)
D|-----------------------------------------------|
A|-----------------------------------------------|
F|-----------------------------------------------|
C|-----------------------------------------------|
G|-----------------------------------------------|
D|-----------------------------------------------|
A|--133133133133-144144144144--------------------|
If you dont understand this tab, just hear the song a follow this, and you gonna get it!
or e mail me at [email protected]




Ваше мнение



Капча