DID MY TIME
KoRn
TAKE A LOOK IN THE MIRROR
Transcribed by Francesco Capolupo
Words by Jonathan Davis Music by KoRn

Gtr I (C G C F A D)
Gtr II (C G C F A D)
Intro
Q=96
4/4
Gtr I
S S S S S S S S S S S S S S S S 4x S S S S S S S S S S S S S S S S
||-----------------------------------||---------------------------------|
||o---------------------------------o||---------------------------------|
||-----------------------------------||---------------------------------|
||-----------------------------------||---------------------------------|
||o-5-7-7-7-5-7-7-7-5-7-7-7-5-7-7-7-o||-5-8-8-8-5-8-8-8-5-8-8-8-5-8-8-8-|
||-----------------------------------||---------------------------------|
|
| Gtr II
| 4x S E S S E S S E S S E S
||-----------------------------------||---------------------------------|
||o---------------------------------o||---------------------------------|
||-----------------------------------||---------------------------------|
||-----------------------------------||-0-3---3-0-3---3-0-3---3-0-3---3-|
||o---------------------------------o||-0-3---3-0-3---3-0-3---3-0-3---3-|
||-----------------------------------||-0-3---3-0-3---3-0-3---3-0-3---3-|
S S S S S S S S S S S S S S S S S S S S S S S S S S S S S S S S 3x
||----------------------------------|-----------------------------------||
||o---------------------------------|----------------------------------o||
||----------------------------------|-----------------------------------||
||----------------------------------|-----------------------------------||
||o-5-7-7-7-5-7-7-7-5-7-7-7-5-7-7-7-|-5-8-8-8-5-8-8-8-5-8-8-8-5-8-8-8--o||
||----------------------------------|-----------------------------------||
|
| S E S S E S S E S S E S 3x
||----------------------------------|-----------------------------------||
||o---------------------------------|----------------------------------o||
||----------------------------------|-----------------------------------||
||----------------------------------|-0-3---3-0-3---3-0-3---3-0-3---3---||
||o---------------------------------|-0-3---3-0-3---3-0-3---3-0-3---3--o||
||----------------------------------|-0-3---3-0-3---3-0-3---3-0-3---3---||
Pre-Verse
Gtrs I, II
S S S S S S S S S S S S S S S S S S S S S S S S S S S S S S S S 8x
|---------------------------------||-----------------------------------||
|---------------------------------||o---------------------------------o||
|---------------------------------||-----------------------------------||
|---------------------------------||-----------------------------------||
|-7-7-7-2-2-2---------------------||o-7-7-7-2-2-2---------------------o||
|-------------5-5-5-0-0-0-4-4-4-4-||--------------5-5-5-0-0-0-4-4-4-4--||
Verse
Gtrs I, II
S S S S S S S S S S S S S S S S S S S S S S S S S S S S S S S S 4x
||----------------------------------|-----------------------------------||
||o---------------------------------|----------------------------------o||
||----------------------------------|-----------------------------------||
||----------------------------------|-----------------------------------||
||o-0-2-2---0-2-2---0-2-2---0-2-2---|-0-3-3---0-3-3---0-3-3---0-3-3----o||
||--0-2-2---0-2-2---0-2-2---0-2-2---|-0-3-3---0-3-3---0-3-3---0-3-3-----||
Chorus
Gtr I Gtr I
S S S S S S S S S S S S S S S S S S S S S S S S S S S S S S S S
|---------------------------------||----------------------------------|
|---------------------------------||o---------------------------------|
|---------------------------------||----------------------------------|
|---------------------------------||----------------------------------|
|-7-7-7-2-2-2---------------------||o-7-7-7-2-2-2---------------------|
|-------------5-5-5-0-0-0-4-4-4-4-||--------------5-5-5-0-0-0-4-4-4-4-|
|
| Gtr II
| S S S S S S S S S S S S S S S S
|---------------------------------||----------------------------------|
|---------------------------------||o-5-5-5-5-5-5-7-7-7-7-7-7-7-7-7-7-|
|---------------------------------||----------------------------------|
|---------------------------------||--2-2-2-2-2-2-4-4-4-4-4-4-4-4-4-4-|
|---------------------------------||o---------------------------------|
|---------------------------------||----------------------------------|
S S S S S S S S S S S S S S S S 4x
|--------------------------------------------||
|-------------------------------------------o||
|--------------------------------------------||
|--------------------------------------------||
|-7-7-7-2-2-2-------------------------------o||
|--------------5--5--5--0--0--0--4--4--4--4--||
|
| S S S S S S S S S S S S S S S S 4x
|--------------------------------------------||
|-8-8-8-8-8-8-10-10-10-10-10-10-10-10-10-10-o||
|--------------------------------------------||
|-5-5-5-5-5-5--7--7--7--7--7--7--7--7--7--7--||
|-------------------------------------------o||
|--------------------------------------------||
Verse
Gtrs I, II
S S S S S S S S S S S S S S S S S S S S S S S S S S S S S S S S 4x
||----------------------------------|-----------------------------------||
||o---------------------------------|----------------------------------o||
||----------------------------------|-----------------------------------||
||----------------------------------|-----------------------------------||
||o-0-2-2---0-2-2---0-2-2---0-2-2---|-0-3-3---0-3-3---0-3-3---0-3-3----o||
||--0-2-2---0-2-2---0-2-2---0-2-2---|-0-3-3---0-3-3---0-3-3---0-3-3-----||
Chorus
Gtr I
S S S S S S S S S S S S S S S S S S S S S S S S S S S S S S S S
|---------------------------------||----------------------------------|
|---------------------------------||o---------------------------------|
|---------------------------------||----------------------------------|
|-2-2-2---------------------------||--2-2-2---------------------------|
|-------2-2-2---------------------||o-------2-2-2---------------------|
|-------------5-5-5-0-0-0-4-4-4-4-||--------------5-5-5-0-0-0-4-4-4-4-|
|
| Gtr II
| S S S S S S S S S S S S S S S S
|---------------------------------||----------------------------------|
|---------------------------------||o-5-5-5-5-5-5-7-7-7-7-7-7-7-7-7-7-|
|---------------------------------||----------------------------------|
|---------------------------------||--2-2-2-2-2-2-4-4-4-4-4-4-4-4-4-4-|
|---------------------------------||o---------------------------------|
|---------------------------------||----------------------------------|
S S S S S S S S S S S S S S S S 4x
|--------------------------------------------||
|-------------------------------------------o||
|--------------------------------------------||
|--------------------------------------------||
|-7-7-7-2-2-2-------------------------------o||
|--------------5--5--5--0--0--0--4--4--4--4--||
|
| S S S S S S S S S S S S S S S S 4x
|--------------------------------------------||
|-8-8-8-8-8-8-10-10-10-10-10-10-10-10-10-10-o||
|--------------------------------------------||
|-5-5-5-5-5-5--7--7--7--7--7--7--7--7--7--7--||
|-------------------------------------------o||
|--------------------------------------------||
Bridge
Gtr I
Q E H +E Q E Q Q +E
||--------------------|----------------------|
||o-------------------|----------------------|
||--------------------|----------------------|
||------3---2-----(2)-|-----3---2------------|
||o-------------------|--------------3---(3)-|
||--0--(0)-(0)----(0)-|-0--(0)-(0)--(0)--(0)-|
|
| Gtr II
| Q E H +E Q E Q Q +E
||--------------------|----------------------|
||o-------------------|----------------------|
||------2---0-----(0)-|-----2---0------------|
||--------------------|--------------2---(2)-|
||o-------------------|----------------------|
||--0--(0)-(0)----(0)-|-0--(0)-(0)--(0)--(0)-|
Q E H +E Q E Q Q +E 4x
|-------------------|------------------------||
|-------------------|-----------------------o||
|-------------------|--------------5---(5)---||
|-----3---2-----(2)-|-----3---2--------------||
|-------------------|-----------------------o||
|-0--(0)-(0)----(0)-|-0--(0)-(0)--(0)--(0)---||
|
| Q E H +E Q E Q Q +E 4x
|-------------------|------------------------||
|-------------------|-----------------------o||
|-----2---0-----(0)-|-----2---0----5---(5)---||
|-------------------|------------------------||
|-------------------|-----------------------o||
|-0--(0)-(0)----(0)-|-0--(0)-(0)--(0)--(0)---||
Q E H +E Q E Q Q +E
|-------------------|----------------------|
|-------------------|----------------------|
|-----2---0-----(0)-|-----2---0------------|
|-------------------|--------------2---(2)-|
|-------------------|----------------------|
|-0--(0)-(0)----(0)-|-0--(0)-(0)--(0)--(0)-|
Q E H +E Q E Q Q +E
|-------------------|----------------------|
|-------------------|----------------------|
|-----2---0-----(0)-|-----2---0----5---(5)-|
|-------------------|----------------------|
|-------------------|----------------------|
|-0--(0)-(0)----(0)-|-0--(0)-(0)--(0)--(0)-|
Breakdown
Gtrs I, II
E. S S E E E S E E 8x S S S S S S S S S S S S S S S S
||-----------------------||-||----------------------------------|
||o---------------------o||-||o---------------------------------|
||-----------------------||-||----------------------------------|
||--0--0-3-0-0-0-0-3-0--||-||----------------------------------|
||o-0--0-3-0-0-0-0-3-0-o||-||o-0-2-2---0-2-2---0-2-2---0-2-2---|
||--0--0-3-0-0-0-0-3-0--||-||--0-2-2---0-2-2---0-2-2---0-2-2---|
S S S S S S S S S S S S S S S S
|------------------------------------||
|-----------------------------------o||
|------------------------------------||
|------------------------------------||
|-0-3-3---0-3-3---0-3-3---0-3-3-----o||
|-0-3-3---0-3-3---0-3-3---0-3-3------||
Chorus
Gtr I
S S S S S S S S S S S S S S S S
||----------------------------------|
||o---------------------------------|
||----------------------------------|
||--2-2-2---------------------------|
||o-------2-2-2---------------------|
||--------------5-5-5-0-0-0-4-4-4-4-|
|
| Gtr II
| S S S S S S S S S S S S S S S S
||----------------------------------|
||o-5-5-5-5-5-5-7-7-7-7-7-7-7-7-7-7-|
||----------------------------------|
||--2-2-2-2-2-2-4-4-4-4-4-4-4-4-4-4-|
||o---------------------------------|
||----------------------------------|
S S S S S S S S S S S S S S S S 4x
|---------------------------------------------||
|--------------------------------------------o||
|---------------------------------------------||
|-2-2-2---------------------------------------||
|-------2-2-2--------------------------------o||
|--------------5--5--5--0--0--0--4--4--4--4---||
|
| S S S S S S S S S S S S S S S S 4x
|---------------------------------------------||
|-8-8-8-8-8-8-10-10-10-10-10-10-10-10-10-10--o||
|---------------------------------------------||
|-5-5-5-5-5-5--7--7--7--7--7--7--7--7--7--7---||
|--------------------------------------------o||
|---------------------------------------------||
Outro
Gtrs I, II
S S S S S S S S S S S S S S S S S S S S S S S S S S S S S S S S
||----------------------------------|-----------------------------------||
||o---------------------------------|----------------------------------o||
||----------------------------------|-----------------------------------||
||----------------------------------|-----------------------------------||
||o-0-2-2---0-2-2---0-2-2---0-2-2---|-0-3-3---0-3-3---0-3-3---0-3-3----o||
||--0-2-2---0-2-2---0-2-2---0-2-2---|-0-3-3---0-3-3---0-3-3---0-3-3-----||




Ваше мнение



Капча