Author/Artist: Korn
Title: Did my time
Album: Take A Look In The Mirror
Transcribed by: Vladimir Belmont
Email: [email protected]
Espero que esta vez si pongan my tab
Drop-D (D, A, D, G, B, e)
**Thus is a tab from all the people what don have a guitar of seven strings **
**Well I think this a 100% correct**
-------------------------------|------------------------------------
-------------------------------|------------------------------------
-------------------------------|------------------------------------
-------------------------------|------------------------------------
-------3h5-5-5-----------------|-----3h6-6-6------------------------
-------------------------------|------------------------------------
Intro Guitar 1 (Distortion) Intro Guitar 2 (Distortion and Pitch pedal)
-------------------------------|------------------------------------
-------------------------------|------------------------------------
-------------------------------|------------------------------------
-------------------------------|------------------------------------
-5-5-5----------------3--5-----|-5-5-5----------------3-------------
-------7-7-7-5-5-5-3-2---------|-------7-7-7-5-5-5-3-2--------------
Slow Intro (Distortion/Wah pedal) Slow Intro (Distortion)
--------------------------------------------------------------------
--------------------------------------------------------------------
--------------------------------------------------------------------
---0-0---0-0----0-0----0-0----1-1----1-1----1-1----1-1--------------
---0-0---0-0----0-0----0-0----1-1----1-1----1-1----1-1--------------
-X-0-0-X-0-0--X-0-0--X-0-0--X-1-1--X-1-1--X-1-1--X-1-1--------------
Verses
------------------------------------|-------------------------------
------------------------------------|-------------------------------
------------------------------------|-------------------------------
------------------------------------|-5-5-5-----------------3-------
-5-5-5----------------3-------------|-5-5-5-7-7-7-5-5-5-3-2-3-------
-------7-7-7-5-5-5-3-2--------------|-------7-7-7-5-5-5-3-2---------
Chorus Guitar 1(Distortion/Wah pedal) Chorus Guitar 2 (Distortion)
--------------------------------------------------------------------
--------------------------------------------------------------------
---------------------------------3----------------------------------
----1--0-----1-0------1-0----1-0------------------------------------
--3--------3-----1--3------3----------------------------------------
--------------------------------------------------------------------
Bridge (Clean and Pitch pedal)
-------------------------------|------------------------------------
-------------------------------|------------------------------------
-------------------------------|------------------------------------
-------------------------------|-5-5-5-6-5-5-6-5-3------------------
--3-3-3-4-3-3-4-3-1------------|-3-3-3-4-3-3-4-3-1------------------
-------------------------------|------------------------------------
Bridge Guitar 1 (Distortion) Bridge Guitar 1 (Distortion)
Well it’s my tab only missing the times but ustedes have encounter
**Dudas, Felicitaciones, Tiempos , Bueno еsсrнваnmе a mi e-mail***
Coming around “Right Now” the true tab




Ваше мнение



Капча