Artist-Korn
Song-Did My Time
____________________________________
KoRn - Did My Time
Album- Supposedly coming out November 2003
Note: This is my first time tabbing stuff up so let me know.
I make sure you play almost like KoRn. Seven string is the only way
to go if you want to play like KoRn.
Tabbed by: KoRn_Fiend ([email protected])
Tuning: 7 string tuned ONE WHOLE STEP DOWN
Low to high (ADGCFAD)
Intro:
D-----------------------------
A-----------------------------
F-----------------------------
C-0-22-0-22-0-22-0-22--------- 16 x's
G-----------------------------
D-----------------------------
A-----------------------------
Intro 2:
D--------------------------------------------------
A--------------------------------------------------
F--------------------------------------------------
C-------------------------0-22--0-22--0-22--0-22--- 4 x's
G--------------------------------------------------
D--------------------------------------------------
A-4-66--4-66--4-66--4-66---------------------------
Chorus:
D----------------------------
A----------------------------
F----------------------------
C--2------------------------- tremelo picking!
G-----2---------------------- 9 x's
D--------3-----2-------------
A-----------3----------------
Riff: 5 x's
D----------------------------------------------------------
A----------------------------------------------------------
F----------------------------------------------------------
C----------------------------------------------------------
G----------------------------------------------------------
D----------------------------------------------------------
A--4/55--4/55--4/55--4/55--5/66--5/66--5/66--5/66----------
Chorus:
RIFF:
Chorus:
Bridge:
with flanger and chorus
D--------------------------------------
A--------------------------------------
F--------------------------------------
C--------------------------------10---- 3 x's
G----8-7----8-7-------8-7----8-7-------
D--5------5-----8---5------5-----------
A--------------------------------------
bridge 2:
D--------------------------------------
A--------------------------------------
F-----15-13-----15-13------------------
C--12--------12-------14--------------- 2x's
G--------------------------------------
D--------------------------------------
A--------------------------------------
Breakdown:
D--------------------------------------
A--------------------------------------
F--------------------------------------
C-------------------------------------- 7 x's
G--------------------------------------
D--------------------------------------
A--3-33-333-4-1------------------------
After breakdown:
D---------------------------------------------------
A---------------------------------------------------
F---------------------------------------------------
C--------------------------------------------------- 2 x's
G---------------------------------------------------
D---------------------------------------------------
A--1/33--1/33--1/33--1/33--3/44--3/44--3/44--3/44---
Chorus:
Riff:
Did My Time


Realized I can never win
Sometimes I feel like I've failed
Inside where do I begin
My mind is laughing at me
Tell me, why am I to blame
Aren't we, supposed to be the same
That's why, I will never tame
This thing that's burning in me
I am the one who chose my path
I am the one who couldn't last
I feel the life pulled from me
I feel the anger changing me
Sometimes I can never tell
If I've got something after me
That's why I just beg and plead
For this curse to leave me
Tell me, why am I to blame
Aren't we, supposed to be the same
That's why, I will never tame
This thing that's burning in me
I am the one who chose my path
I am the one who couldn't last
I feel the life pulled from me
I feel the anger changing me
Betrayed
I feel so, enslaved
I really tried
I did my time
I did my time x4
I am the one who chose my path
I am the one who couldn't last
I feel the life pulled from me
I feel the anger changing me
Oh god, the angers changing me x2




Ваше мнение



Капча