DID MY TIME
Riff 1
D|--------------------------------------------------|
A|--------------------------------------------------|
F|--------------------------------------------------|
C|--------------------------------------------------|
G|--5-777-5-777-5-777-5-777-------------------------|
D|--------------------------------------------------|
A|--------------------------------------------------|
Riff 2
D|--------------------------|
A|--------------------------|
F|--------------------------|
C|--------------------------|
G|--------------------------|
D|---5-888-5-888-5-888------|
A|---3-666-3-666-3-666------|
Chorus
D|-------------------------------|
A|-------------------------------|
F|-------------------------------|
C|---222-------------------------|
G|--------222--------------------|
D|-------------333---------22----|
A|-------------------333---------|
D|-----------------------------------------------|
A|-----------------------------------------------|
F|-----------------------------------------------|
C|-----------------------------------------------|
G|-----------------------------------------------|
D|-----77---77---77---77---88---88---88---88-----|
A|---0-55-0-55-0-55-0-55-0-66-0-66-0-66-0-66-----|
Bridge 1
D|------------------------------------|
A|------------------------------------|
F|------------------------------------|
C|------------------------------------|
G|------------------------------------|
D|--1-0---1-0------1-0----1-0---------|
A|------1-----1--3------1------1--3---|
Bridge 2
D|--------------------|
A|--------------------|
F|--------------------|
C|--------------------|
G|--------------------|
D|----5-555-55-5/6-4--|
A|----3-333-33-3/4-2--|
Outro
D|----------------------------------------------|
A|----------------------------------------------|
F|----------------------------------------------|
C|----------------------------------------------|
G|----------------------------------------------|
D|-----55---55---55---55---66---66---66---66----|
A|---0-33-0-33-0-33-0-33-0-44-0-44-0-44-0-44----|
TABBED BY JUSTIN SCOTT




Ваше мнение



Капча