Ok kiddies this is the most accurate tab out there i played the other ones and
they sound nothin like the frikkin song! There was absolutely no competition with
this tab... Well heres the tab ENJOI

--Fast--
[-----------------------------------------------------------
[-----------------------------------------------------------
[--10101010-----11111111----10101010------------------------
[-----------------------------------------------------------
[--8-8-8-8------9-9-9-9-----8-8-8-8-------------------------
[--------------------------------------10-1111--------------
[-0-----------0----------0----------------9-9---------------

[-----------------------------------------------------------
[-----------------------------------------------------------
[--10101010-----11111111----10101010------------------------
[-----------------------------------------------------------
[--8-8-8-8------9-9-9-9-----8-8-8-8-------------------------
[--------------------------------------543------------------
[-0-----------0----------0-------------321------------------
--slow pace--
[-----------------------------------------------------------
[-----------------------------------------------------------
[-----------------------------------------------------------
[-----------------------------------------------------------
[-----------------------------------------------------------
[--2----2----2----24----------------------------------------
[--0xx-x0xx-x0xx-x12----------------------------------------

[-----------------------------------------------------------
[-----------------------------------------------------------
[-----------------------------------------------------------
[-----------------------------------------------------------
[-----------------------------------------------------------
[--2----2----2----24-543------------------------------------
[--0xx-x0xx-x0xx-x12-123------------------------------------

thats all i know and all i care about.. well thanx and hope you enjoyed it.
sincerely, KoRnadic88




Ваше мнение



Капча