`=Hammer/slam off
(0)=open string mute
Fig1 (Intro/Bridge)
e||--------9---------------7-------------14--15-----14--12--||
B||--4--7-----7--4--7--4---7---7---12--------11-------------||
G||---------------------------------------------------------||
D||---------------------------------------------------------||
A||---------------------------------------------------------||
E||---------------------------------------------------------||
Fig3 (Chorus)
e||-------------------------------||
B||-------------------------------||
G||-------------------------------||
D||-------------------------------||
A||--5`4`3-(0)-----5`4`3-(0)---2--||
E||--3`2`1-(0)-----3`2`1-(0)---0--||
Fig4 (Interlude1)
e||--------------||
B||--------------||
G||--4--5--4--7--||
D||--3--4--3--6--||
A||--2--3--2--5--||
E||--------------||
Fig5 (Interlude2)
e||--------------||
B||--------------||
G||--5--4--7--4--||
D||--4--3--6--3--||
A||--3--2--5--2--||
E||--------------||
Fig6 (Bridge)
e||--19-20-19--------------||
B||-----------20-19-20-19--||
G||------------------------||
D||------------------------||
A||------------------------||
E||------------------------||




Ваше мнение



Капча