Fig 1 (Intro/Bridge riff)
d||--------9---------------7----||
A||--4--7-----7--4--7--4-7---7--||
F||-----------------------------||
C||-----------------------------||
G||-----------------------------||
D||-----------------------------||

Fig 2 (Chorus riff)
d||---------------------------------||
A||---------------------------------||
F||---------------------------------||
C||--11s12s11--9---11s12s11-9-9s11--||
G||--10s11s10--8---10s11s10-8-8s10--||
D||---9s10s-9--7----9s10s-9-7-7s-9--||

Fig 3 (Verse riff)
d||-----14--15-----14--12--||
A||--12--------11----------||
F||------------------------||
C||------------------------||
G||------------------------||
D||------------------------||

Fig 4 (Bridge riff)
d||--19-20-19--------------||
A||-----------20-19-20-19--||
F||------------------------||
C||------------------------||
G||------------------------||
D||------------------------||

Fig 5 (Interlude riff)
d||--------------||
A||--------------||
F||--4--5--4--7--||
C||--3--4--3--6--||
G||--2--3--2--5--||
D||--------------||

Fig 6 (Interlude riff)
d||--------------||
A||--------------||
F||--5--4--7--4--||
C||--4--3--6--3--||
G||--3--2--5--2--||
D||--------------||




Ваше мнение



Капча