Downloaded from WWW.KORNWEB.COM
Dead Bodies Everywhere - Bass Tab
1 Transcriptions
--------------------------------------------------------------
Transcribed By: Neal Cooper ([email protected])
Slap for entire song except solo
Intro For all whole notes. pull string to side,
G---|-----|-----|-----|-----|-----|-----|-----|-----|-----|-------------
D---|-----|-----|-----|-----|-----|-----|-----|-----|-----|-------------
A---|-----|-----|-----|-----|-----|-----|-----|-----|-----|-------------
D---|--0--|--0--|--0--|--0--|--0--|--0--|--0--|--0--|--0--|-------------

then slowly mute. (use chorus on amp if possible)
G------|-----|-----|-----|-----|-----|-----|--||------------------------
D------|-----|-----|-----|-----|-----|-----|--||*-----------------------
A------|-----|-----|-----|-----|-----|-----|--||*-----------------------
D---0--|--0--|--0--|--0--|--0--|--0--|--0--|--||---1--1--1--0--0--------

8x 8x
G----||--||------------------------------------||--|--|-----------------
D---*||--||*----------------------------------*||--|--|-----------------
A---*||--||*----------------------------------*||--|--|-----------------
D----||--||---1--1--0h1--1--2--2-----2--3--2---||--|--|--1--1--0h1------

8x
G------------------------|--||-------------------||--||-----------------
D------------------------|--||*-----------------*||--||*----------------
A------------------------|--||*-----------------*||--||*----------------
D---1--2--2-----2--4--3--|--||---1--1--1--0--0---||--||---1--1--0h1-----

8x
G-------------------------||--|----------------------------------|------
D------------------------*||--|----------------------------------|------
A------------------------*||--|----------------------------------|------
D---1--2--2-----2--3--2---||--|--1--1--0h1--1--2--2-----2--4--3--|------

8x Play same as intro 6x
G---||----------------------||--|--||----------------------||--||-------
D---||*--------------------*||--|--||*--------------------*||--||*------
A---||*--------------------*||--|--||*--------------------*||--||*------
D---||---1-----1--1--0--0---||--|--||---------0------------||--||-------

Solo (Use chorus on Amp if possible)
G--------------------------------------|--------------------------------
D--------------------------------------|--------------------------------
A-----------12--------------12---------|-------------12-----------------
D---13--12------12--12--11------11--0--|-----13--12------12--12--11-----

4x 25x
G---------------------||--||----------------------------||--|-----------
D--------------------*||--||*--------------------------*||--|-----------
A---12---------------*||--||*--------------------------*||--|-----------
D-------11--9--7--6---||--||---2--2--3--3--2--2--4--4---||--|-----------

For Outro repeat solo. Although Fieldy uses some kind of effects pedal
G---|-------------------------------------------------------------------
D---|-------------------------------------------------------------------
A---|-------------------------------------------------------------------
D---|-------------------------------------------------------------------




========================================================================
== TABLATURE EXPLANATION ==
========================================================================
---------- ---------- ----t---
----5h8--- Hammeron ----(8)--- Ghost ----6--- Tap
---------- ---------- Note --------
----5p8--- Pulloff ---------- --------
---------- ---------- -----p--
----5/8--- Slide Up -----x---- Dead -----7-- Pop
---------- ---------- Note --s-----
----58--- Slide Down ---------- --5----- Slap
---------- ||------|| Repeat --------
----5~~~-- Vibrato ||*----*|| ---5^--- Bend
---------- ||*----*|| --------
---------- ||------|| --------
---------- ---------- --------
-4:------- Time ---------- --------
-4:------- Signature ---------- --------
---------- ---------- --------
Rhythm:
w = whole note W = dotted whole
h = half note H = dotted half
q = quarter note Q = dotted quarter
e = eighth note E = dotted eighth
s = sixteenth note S = dotted sixteenth
t = 32nd note T = dotted 32nd
x = 64th note X = dotted 64th
^ = triplet
========================================================================
== Created with a demo version of BUCKET O' TAB ==
== tablature creation software for Windows ==
== For more info email [email protected] ==
========================================================================




Ваше мнение



Капча