Date: Tue, 30 Jan 1996 22:31:46 -0800 (PST)
From: James Albers
Subject: Daddy.tab (Korn)

Daddy-Korn

Intro-Fieldy
|.1-3.... |..4......
F||-----------------------||----------||
C||-----------------------||----------||
G||-----------------------||----------||
D||------1^0-------1^0----||----------||
A||--0-0-----0-0--0----0--||--0-1-----||

Verse Riff-Munky
d||-------------------||
a||-----13------12----||
F||--16------15-------||
C||-------------------||

Chorus
C||----------------------------------------||
G||--4/5-4----4/5-4----4/5-3----3/4-3------|| * this chord is a 1/3/3
D||--4/5-4----4/5-4----4/5-3----3/4-3------|| chord on the repeat
A||--2/3-2----2/3-2----2/3-1----1/2-1------||
*
Fill 1
F||-----------------||
C||--0--------------|| "It's alright"
G||--4-5------------||
D||-----------------||

Bridge
d||----------------13^--------------------||




Ваше мнение



Капча