TUNING: A, D, G, C, F, A, D (low to high)

Intro/Verse:
D---------------------
A---------------------
F---------------------
C---------------------
G-4-4/5-----4-4/5-----
D-4-4/5-----4-4/5-----
A-2-2/3-0h2-2-2/3-0-2-

Chorus:
D---------------------------
A---0---0---0-----0---0---0-
F---3---4---2-----3---4---2-
C---4---4---2-----4---4---2-
G---------------------------
D-2---3---1---------3---1---
A-------------0-2-----------

Bridge:
D----11-12-11------8----8-----
A-------------9---------------
F-------------------------9-8-
C-11------------10---10-------
G-----------------------------
D-----------------------------
A-----------------------------




Ваше мнение



Капча