WWW.EXTREMETABS.COM

URL: www.extremetabs.com
EMAIL: [email protected]

SONG: Counting
BAND: Korn
ALBUM: Issues
TRANSCRIBED BY: [email protected]
DATE: November 18, 1999

TUNING: standard tuning (B,E,A,D,G,B,E)


INTRO:

E|--------------------------------------------------|
B|--------------------------------------------------|
G|--------------------------------------------------|
D|--4/5--x--5-------4/5--x--53---------------------|
A|--4/5--x--5-------4/5--x--53---------------------|
E|--4/5--x--5--2/3--4/5--x--53---------------------|
B|--------------------------------------------------|

VERSE:

E|--------------------------------------------------|
B|--------------------------------------------------|
G|--------------------------------------------------|
D|--------------------------------------------------|
A|--4/5--x--5-------4/5--x--53---------------------|
E|--4/5--x--5-------4/5--x--53---------------------|
B|--2/3--x--3--0-2--2/3--x--31---------------------|

CHORUS:

E|--------------------------------------|
B|----0-----------0---------------------|
G|----3-----------3---------------------|
D|----0-----------0---------------------|
A|--5---10------4---2-------------------|
E|--5----8------4---2-------------------|
B|--3----8------2---0-------------------|

BRIDGE:

E|-------11~---12-11---------7~---8-7---|
B|----------12------------------8-------|
G|--------------------------------------|
D|-11/12-----------------8-8------------|
A|--------------------------------------|
E|--------------------------------------|
B|--------------------------------------|




Ваше мнение



Капча