------------------------------------------------------------------
---------------2/bend-down------------------2end-up-------------
------------------------------------------------------------------
--2-2-2-2-2--------------------2-2-2-2-2--------------------------
--2-2-2-2-2--------------------2-2-2-2-2--------------------------
--0-0-0-0-0--------------------0-0-0-0-0--------------------------
2x
then bass part--

------------------------------------------------------------------
------------------------------------------------------------------
------------------------------------------------------------------
---5-6-5-4-5-4-5-6-5-4-5-4-5-6-4----------------------------------
---5-6-5-4-5-4-5-6-5-4-5-4-5-6-4----------------------------------
---3-4-3-2-3-2-3-4-3-2-3-2-3-4-2----------------------------------
play 5x
----------------------------------------------------
----------------------------------------------------
----------------------------------------------------
---5/6---4/5---5/6---4/5---5/6---4------------------
---5/6---4/5---5/6---4/5---5/6---4------------------
---3/4---2/3---3/4---2/3---3/4---2------------------
play 4x
----------------------------------------------------
----------------------------------------------------
----------------------------------------------------
----------------------------------------------------
---3-4-3-2-3-2-3-4-3-2-3-2-3-4----------------------
----------------------------------------------------
play 8x
------------------------------------------------------
------------------------------------------------------
------------------------------------------------------
--2-2-2----6/5-5/4-4/3--------------------------------
--2-2-2----6/5-5/4-4/3--------------------------------
--0-0-0----4/3-3/2-2/1--------------------------------
play 8x
-------------------- ------------------------
-----------------2-- ------------------------
-------------------- ------------------------
--2-2-2-2-2--------- --2-2-2-2-2-------------
--2-2-2-2-2--------- --2-2-2-2-2-------------
--0-0-0-0-0--------- 3x --0-0-0-0-0-------------
-------------------------------------
-------------------------------------
-------------------------------------
-------------------------------------
--3-4-3-2-3-2-3-4-3-2-3-2-4----------
------------------------------------- 8x
-------------------------------------
-------------------------------------
-------------------------------------
--2-2-2---6/5-5/4-4/3----------------
--2-2-2---6/5-5/4-4/3----------------
--0-0-0---4/3-3/2-2/1----------------8x
same part but different
-------------------------- --------------------------
----------1-------1------- -----------1--------------
-------------------------- --------------------------
--2-2-2----2-2-2---------- --2-2-2------2-2-2-1-0----
--2-2-2----2-2-2---------- --2-2-2------2-2-2-1-0----
--0-0-0----0-0-0----------




Ваше мнение



Капча