Downloaded from WWW.KORNWEB.COM
Christmas Song - Bass Tab
1 Transcriptions
--------------------------------------------------------------
Transcribed By: Jonathan Mettes [email protected]
NOTE: 5-string bass tuned down one whole step (ADGCF)
RIFF 1 (0:00 to 0:13)
F||--------------------------------||
C||--------------------------------||
G||--------------------------------||
D||--------------------------------||
A||--3----4----1/3----2--1--1/3----||
RIFF 2 (0:14 to 0:25)
F||------------------------------------------||
C||------------------------------------------||
G||------------------------------------------||
D||------------------------------------------||
A||--3----4----1/3----2--1--1/5--4--3--2--1--||
RIFF 3 (0:26 to 0:40)
F||----------------------------------------------------||
C||----------------------------------------------------||
G||----------------------------------------------------||
D||----------------------------------------------------||
A||--5--4--3--4--1--5--4--3--2--1--5--4--3--4--1--3----||
BRIDGE (0:40 to 0:47)
F||-------------------||
C||-------------------||
G||-------------------||
D||-------------------||
A||--3----4----1/3----||
RIFF 2 (0:47 to 0:59)
RIFF 3 (1:00 to 1:14)
RIFF 1 (1:15 to 1:25)
RIFF 2 (1:26 to 1:39)
RIFF 4 (1:52 to 2:03)
F||-------------------||
C||-------------------||
G||-------------------||
D||-------------------||
A||--3-3-3-3-4-44-44--||




Ваше мнение



Капча