#----------------------------------PLEASE NOTE---------------------------------#
#This file is the author's own work and represents their interpretation of the #
#song. You may only use this file for private study, scholarship, or research. #
#------------------------------------------------------------------------------#
#

From: Pre-installed User
To: [email protected]
Subject: KoRn TABS

Band: KoRn transcript by: Ben Long
Song: Chi e-mail me at: [email protected]

7-sting guitar tuned down a full step

Intro
-------
-------
-------
-------
-------feedback
-43---
-21---

Intro 2
------------------
------------------
------------------
------------------
------------------
-43-32-2--2-3/4-
-21-1-0--0-1/2-

Pre-verse
-12---------------
------------------
------------------
------------------
------------------
------------------
------------------

Verse-all natural harmonics
-14---------14--------
-----11--------11-12--
--------11-----------
----------------------
----------------------
----------------------
----------------------

Chorus same as intro 2

Bridge 1
me entering my head...
-----------------------
-----------------------
-----------------------
-Feedback--------------
-----------------------
-----------------------
-----------------------

Bridge 2
-------------------
-------------------
-------------------
-------------------
-------------------
-2--2-2-2-7-7--3-3-
-0--0-0-0-5-5--1-1-

Bridge 3
---------------------------
---------------------------
---------------------------
---------------------------
---------------------------
-2222--2222--2222-7-7--3-3-
-0000--0000--0000-5-5--1-1-

Outro
Bite!
----------
----------
----------
----------
----------
-5--43-2-
-3--21-0-

Bite!
Buried so far away
enter my life nothing

Sick of the same old thing
So I dig a hole bury the pain

I am so high always
burying my life so slowly

Sick of the same old thing
So I dig a hole bury the pain

It opens my mind to feelings
Can't face bottom without something

Sick of the same old thing
So I dig a hole bury pain

We entering my head
feeling like I'm God
With the world around me
Can't you feel this pain!
reaming through my heart!
screaming through my head!
nothing I can Kill!
screaming a lie!
I! Am!
Can't you feel my eyes out
Can't you take my heart
Away to heart
Good-bye




Ваше мнение



Капча