This song should only be played on a 5 string tuned
A-d-g-c-f
bass intro
A| --------------------------|
D| --------------------------|
G| ------14------------------|
C| -----------13---10--------|
F| --12------------------12--|

When Davis says:'Are you ready???'
-------------------------------|
-------------------------------|
-------------------------------| x4
-----------------1-1-1-1-------|
-0-2-0-3-0-2-0-3---------------|
Break
Then
-------------------------------|
-------------------------------|
-------------------------------| x4
-----------------1-1-1-1-------|
-0-2-0-3-0-2-0-3---------------|
-------------------------------|
-------------------------------|
-------------------------------| x1
-----------------1-1-1-1-------|
-0-0-0-2-0-3-0-2---------------|
-------------------------------|
-------------------------------|
-------------------------------| x3
-----------------1-1-1-1-------|
-0-2-0-3-0-2-0-3---------------|
When Davis says:'A place inside my mind...'
(SLAP)
------------------------------|
------------------------------|
------------------------------|
-0-000--0-1-111-1-------------| verse x 4
------------------------------|
Pre-verse
----------------------------|
----------------------------|
----------------5-----------| x4
--5--5-5-5-5-5--------------|
--------------------5-------|
verse x 4
pre verse x 4
To burn, to burn...
-------------------------------|
-------------------------------|
-------------------------------| x4
-----------------1-1-1-1-------|
-0-2-0-3-0-2-0-3---------------|
------|
------|
------|
------|
--0---| Let ring as long as you can.
(SLAP)
------------------------------|
------------------------------|
------------------------------|
-0-000--0-1-111-1-------------| verse x 4
------------------------------|
-------------------------------|
-------------------------------|
-------------------------------| x8
-----------------1-1-1-1-------|
-0-2-0-3-0-2-0-3---------------|
Outro
------------------------------------------|
------------------------------------------|
------------------------------------------|
---14---------15--------------------------|
-------12-13-------13-12------------------| fade out


Ваше мнение



Капча