TUNING: A, D, G, C, F, A, D

Intro/Verse
D-----------------------
A-----------------------
F-----------------------
C-----------------------
G-6---6----6---6--------
D-----------------------
A---3---3----3---3--4/3-

Chorus:
D------------------------------------------------
A------------------------------------------------
F------------------------------------------------
C------------------------------------------------
G---6---6----6---6----------6---6----6---6-------
D------------------------------------------------
A-3---3---3----3---3--/7--3---3---3----3---3--/4-

Bridge:
D---------------
A---------------
F---------------
C---6-----5-----
G-3-6-6-5-5-4-2-
D-3-4-6-5-3-4-2-
A-1---4-3---2---

Outro:
D---------15---------18-
A------16---------16----
F-5-13-------5-13-------
C-5----------5----------
G-3----------3----------
D-----------------------
A-----------------------


Ваше мнение



Капча