Korn (Issues)
BEG FOR ME - tabbed by Boris the bazza dude
If you have a 7 string play it in the same place but on the 7th
string or play on the same note but lower. I labeled each riff
part A B C and D so when you see them you know what to play.
PART A
e ||-----------------------------------------------|
B ||-----------------------------------------------|
G ||------4------------4---------4-----------------|PLAY 8 TIMES
D ||------4------------4---------4-----------------|
A ||-2---2----2---2---2---2----2-------------------|
E ||-0--------0---0--------0--------0-2-3----------|
PART B
e ||----------------------------------|
B ||----------------------------------|
G ||----------------------------------|PLAY 8 TIMES
D ||----------------------------------|
A ||--4-------4-------4------4--------|
E ||-----2--------2------2------2-----|
PART A-PLAY 8 TIMES
PART B---PLAY 8 TIMES
PART A---PLAY 8 TIMES
PART C
e ||------------------------------------------|
B ||------------------------------------------|
G ||----------4-----2-----------5---2---------|PLAY 4 TIMES
D ||----------4-----2-----5----5----2---------|
A ||---2------2-----0----5-----3----0---------|
E ||---0------------------3-------------------|
PART B---PLAY 2 TIMES
PART A---PLAY 16 TIMES
PART D
e ||---------0----------0---------0---------0----|
B ||---------5----------5---------5---------5----|
G ||---------3----------3---------3---------3----|PLAY 2 TIMES
D ||----2----------2---------2--------2----------|
A ||----2----------2---------2--------2----------|
E ||----0----------0---------0--------0----------|
=============================


Ваше мнение



Капча