WWW.EXTREMETABS.COM

URL: www.extremetabs.com
EMAIL: [email protected]

SONG: BBK
BAND: Korn
ALBUM: Follow The Leader
TRANSCRIBED BY: Paul De Jaegher
DATE: September 15, 1999

TUNING: standard tuning

Korn uses seven string guitars tuned down a step, but this song can be played
in standard tuning on a six string.

INTRO: (4 times) played with a wah wah pedal

E|-----------------------------------|
B|-----------------------------------|
G|--1-1-1-1-1-1-1-1-1-1-2-2-2-2-2-2--|
D|-----------------------------------|
A|-----------------------------------|
E|-----------------------------------|

then play this part 8 times before the first verse

E|--4-4-4-4-4-4-/-16-------17--------|
B|-----------------------------------|
G|--1-1-1-1-1-1-/-13-------14--------|
D|-----------------------------------|
A|------------------------------0----|
E|-----------------------------------|

VERSES 1 AND 2:

E|------------------------12---------|
B|--------------15-------------------|
G|-----------------------------------|
D|-----------------------------------|
A|-----------------------------------|
E|-----------------------------------|

CHORUS:

E|--------------------------------18-18-18----17-17-17--|
B|--17-17-17-17-17-17-17-17-17--------------------------|
G|--------------------------------15-15-15----14-14-14--|
D|--14-14-14-14-14-14-14-14-14--------------------------|
A|------------------------------------------------------|
E|------------------------------------------------------|

E|----------------------------------------------|
B|--16-16-16------------------------------------|
G|--------------15-15-15-15-15-15-15-15-15-15---|
D|--13-13-13------------------------------------|
A|--------------13-13-13-13-13-13-13-13-13-13---|
E|----------------------------------------------|

E|--------------------------------18-18-18----17-17-17--|
B|--17-17-17-17-17-17-17-17-17--------------------------|
G|--------------------------------15-15-15----14-14-14--|
D|--14-14-14-14-14-14-14-14-14--------------------------|
A|------------------------------------------------------|
E|------------------------------------------------------|

E|--------------18-18-18-18-18-18-18-18-18-18---|
B|--16-16-16------------------------------------|
G|--------------15-15-15-15-15-15-15-15-15-15---|
D|--13-13-13------------------------------------|
A|----------------------------------------------|
E|----------------------------------------------|

VERSE 3: play this about three times

E|-----------------------------------|
B|--5----------------17--------------|
G|-----------------------------------|
D|-----------------------------------|
A|-----------------------------------|
E|-----------------------------------|

then play this (still part of verse 3)

E|-----------------------------------|-------------------------------------|
B|------------------------15--14----|--5------------------17--------------|
G|-----------------------------------|-------------------------------------|
D|-----------------------------------|-------------------------------------|
A|-----------------------------------|-------------------------------------|
E|-----------------------------------|-------------------------------------|

E|-----------------------------------|
B|-------------------10--9--5------|
G|-----------------------------------|
D|-----------------------------------|
A|-----------------------------------|
E|-----------------------------------|

BRIDGE:

E|-----------------------------------|-----------------------------------|
B|----------------3-----1------------|-------------------3------3--------|
G|-----------------------------------|-----------------------------------|
D|-----------------------------------|-----------------------------------|
A|--0--------------------------------|-----------------------------------|
E|-----------------------------------|--4--------------------------------|

INTERLUDE: because Korn uses seven string guitars,
this part is one octave higher than normal

E|-----------------------------------|
B|-----------------------------------|
G|-----------------------------------|
D|----------1-------------1----------|
A|--0-0-0-0----0----0-0------0-0-----|
E|-----------------------------------|


Ваше мнение



Капча