Band:KoRn
Song:Ball Tongue
Album:KoRn
Transcribed By:Jono Dallas
now i know that korn use a 7 string guitar by i changed it to a 6 string and it sounds
exactly the same. i think this is nearly 100% right but if u think there is a problem
just fiddle round with it and it will work.
INTRO
----------------------------------------
----------------------------------------
---------------------------------------- (play 4 times)
---00---1---0/3---0/1---0---4--4--------
---00---1---0/3---0/1---0---4--4--------
---00---1---0/3---0/1---0---4--4--------
----------------------------------------
----------------------------------------
----------------------------------------
---3---3333----3----1--1--1--1----------
---3---3333----3----1--1--1--1----------
---3---3333----3----1--1--1--1----------
----------------------------------------
----------------------------------------
---------------------------------------- (play 3 times)
---2-3---2-3---3/2----------------------
---2-3---2-3---3/2----------------------
---2-3---2-3---3/2----------------------
(play continues from previous bar)
----------------------------------------
----------------------------------------
----------------------------------------
---2-3---2-4---5555---------------------
---2-3---2-4---5555---------------------
---2-3---2-4---5555---------------------
(play previous 2 bars ounce)
VERSE
---------------------------------------- (play 7 times-
---9----9/876--------------------------- hold 1st 9 and
---------------------------------------- then kinda slide
---------------------------------------- slide it down)
----------------------------------------
----------------------------------------
(there u r alone,with no hope of ever having .........)
CHORUS
----------------------------------------
----------------------------------------
---------------------------------------- (play 4 times)
---22----2---2---22---4-----------------
---22----2---2---22---4-----------------
---22----2---2---22---4-----------------
(BALL TONGUE!!-u got the dykes off BALL TONGUE........)
VERSE 2
----------------------------------------
---9----9/876---------------------------
----------------------------------------
----------------------------------------
----------------------------------------
----------------------------------------
(why are u at home,buried in your own self pity.........)
CHORUS 2
----------------------------------------
----------------------------------------
---------------------------------------- (play 8 times)
---22----2---2---22---4-----------------
---22----2---2---22---4-----------------
---22----2---2---22---4-----------------
(BALL TONGUE!!-u have come to take from ur buddy.........)
---------------------------
---^----------------^------
---9----------------5------
---------------------------
---------------------------
---------------------------
PRE CHORUS
--------------------------------------------
--------------------------------------------
-------------------------------------------- (play 7 times)
---2-3---2-3---3/2--------------------------
---2-3---2-3---3/2--------------------------
---2-3---2-3---3/2--------------------------
(u were my brother,where does out friendship end.........)
--------------------------------------------
--------------------------------------------
--------------------------------------------
---2-3---2-4---1--1--1--1-------------------
---2-3---2-4---1--1--1--1-------------------
---2-3---2-4---1--1--1--1-------------------
BRIDGE
----^------------------^--------------------
---21-----------------21----15/16-15/16-15--
-------------------------------------------- (play 4 times)
--------------------------------------------
--------------------------------------------
--------------------------------------------
PRE CHORUS
--------------------------------------------
--------------------------------------------
-------------------------------------------- (play 7 times)
---2-3---2-3---3/2--------------------------
---2-3---2-3---3/2--------------------------
---2-3---2-3---3/2--------------------------
--------------------------------------------
--------------------------------------------
--------------------------------------------
---2-3---2-4---555--------------------------
---2-3---2-4---555--------------------------
---2-3---2-4---555--------------------------
(FAINT GUITAR)
--------------------------------------------
-----^---------^--------^----------^--------
----12--------10--------8---------10-------- (play 2 times)
--------------------------------------------
--------------------------------------------
--------------------------------------------
(how can u fuck'n dout me but not again-repeated..........)
CHORUS
--------------------------------------------
--------------------------------------------
-------------------------------------------- (play 8 times)
---22----2---2---22---4---------------------
---22----2---2---22---4---------------------
---22----2---2---22---4---------------------
(BALL TONGUE!! they've right by ur friends...........)
INTERCLUDE BETWEEN CHORUS'
--------------------------------------------
--------------------------------------------
-------------------------------------------- (play 4 times)
---22----2---2---22---4---------------------
---22----2---2---22---4---------------------
---22----2---2---22---4---------------------
(your a phycopath-repeated..............)
CHORUS
--------------------------------------------
--------------------------------------------
-------------------------------------------- (play 8 times_
---22----2---2---22---4---------------------
---22----2---2---22---4---------------------
---22----2---2---22---4---------------------
(BALL TONGUE!! berome died at the technodrone...........)
OUTRO
--------------------------------------------
--------------------------------------------
-------------------------------------------- (play 12 times)
---22----2---2---22---4---------------------
---22----2---2---22---4---------------------
---22----2---2---22---4---------------------
(FADE OR SOFTEN UP WEN U GET TO ABOUT THE 9th TIME THROUGH)
Well there it is i put bits of lyrics at the bottom of each bar where there is singning
to help u when u guys rate it rate it good cause this is a long song 2 do.
later jono


Ваше мнение



Капча