Korn - Alive
Tabbed By: Fieldy
NOTE: Tune down 5 whole steps (ADGCea)
MAIN RIFF
G|-2-4-4-4-5-4-4-4-5-4-4-4-7-7-5-5-|
D|-0-2-2-2-3-2-2-2-3-2-2-2-5-5-3-3-|
A|---------------------------------|
LEAD PART
e|-8----//11-7-----8---//11-7--3-|
VERSE
D|-4-4---5-5-----7////|
A|-2-2---3-3--5--5////|
CHORUS
a|----------------------|
e|----------------------|
C|----------------------|
G|-2-------5--4----3----|
D|-0--2-3--3--2----1----|
A|----0-1---------------|
OTHER RIFF
C|------------------|
G|-2----------5-4-3-|
D|-0----------3-2-1-|
A|------------------|
FILL
G|--------1-2-5-4-3-|
D|-0--321-----3-2-1-|
BRIDGE
D|-2-2---2-2--2-5-6-5-2-2-|
A|-0-0---0-0--0-3-4-3-0-0-|


Ваше мнение



Капча