te: Mon, 06 Apr 1998 23:56:14 -0400
From: renihan
Subject: k/kmfdm/mercy.tab
MERCY
from the album with no name..
intro bass:
(in dropped d)
e--------------------------------------|
B--------------------------------------|
G--------------------------------------|
D--------------------------------------|
A--------------------------------------|
D-0-3-5--0-0-3-5-3--0-3-5--0-0-3-5-3-10|
Chorus:
e----------------------------|
B----------------------------|
G----------------------------|
D-0--0--10-12---6-x-5-x-5-3--|
A-0--0--10-12---6-x-5-x-5-3--|
E-0--0--10-12---6-x-5-x-5-3--|
High part at 3:04
e--------------
B--------------
G-10--9p7--3---
D--------------
A--------------
E--------------
Soloish thing at 3:48
e-------------------------
B----------/15b-----------
G---10~~------------------
D-------------------------
A-------------------------
E-------------------------
bend the 15 a few times, play with it.
That's the whole song. it's cool.
LYRICS:
I went thru too many people
I went thru heaven and hell
I went from Rome to Baghdad
Too many stories to tell
CHORUS:
What do you mean by that?
Mercy is all you get
Do what you won't regret
Freedom's your self-respect
I lived through too many aeons
I've risen up and I fell the fall
I have been there and I have done that
I've seen it all and all
CHORUS
My time is running like water
Deeper I dive and deeper
Last of nine lives of the cat
I saved my soul for the Reaper
CHORUS
END
if you think my tabbing skills are as good
as moldy cheese, tell me:
[email protected]
BY:
ren





Ваше мнение



Капча