Date: Fri, 1 Sep 1995 00:20:57 -0400 (EDT)
From: Hops
Subject: TAB: Crazy Horses by KMFDM
Crazy Horses - KMFDM
====================
-3rd track on the Godlike single.
Transcribed by:
Gord Murdoch
[email protected]
Notation:
3h5 : Hammer-on.
5p3 : Pull-off.
3b5 : Bend first note to the of the equivalent second note.
5r3 : Release the already bent note at the pitch written back
to the original note.
3/5 : Strike the first note and slide up to the second note.
5\3 : Strike the first note and slide down to the second note.
p.m.: Palm mute.
a.h.: Artificial harmonic.
n.h.: Natural harmonic.
~ : Let note ring.
/\/\: Whammy bar.
Note : Tune the 5th string down to G.
Intro / Main Riff:
Palm mute all open strings.
E-|-------------|-------------|-------------|-----------|
B-|-------------|-------------|-------------|-----------|
G-|-------------|-------------|-------------|-----------| Repeat
D-|-------------|-------------|-------------|-5-----5/6-| 4 times
G-|-0-0-0-3p0-0-|-0-0-0-3p0-0-|-0-0-0-3p0-0-|-5-0-0-5/6-|
E-|-------------|-------------|-------------|-----------|
Bridge:
E-|-------------|-------------|-------------|
B-|-------------|-------------|-------------|
G-|-------------|-------------|-------------|
D-|-8~---/\/\---|-10~---/\/\--|-5~---/\/\---|
G-|-8~---/\/\---|-10~---/\/\--|-5~---/\/\---|
E-|-------------|-------------|-------------|
E-|-------------|-------------|-------------|
B-|-------------|-------------|-------------|
G-|-------------|-------------|-------------|
D-|-8~---/\/\---|-10~---/\/\--|-6~---/\/\---|
G-|-8~---/\/\---|-10~---/\/\--|-6~---/\/\---|
E-|-------------|-------------|-------------|
Return to main riff.
The solo and some fills are missing but please add or correct anything
you can and include this file with it. Don't forget to post it to
OLGA as well.
Cheers,
Gord
=============================================================================
Gord Murdoch "You see...I don't know Neil, I don't
[email protected] know Neil."
Brock University
St. Catharines, Ontario The Tragically Hip
=============================================================================

Date: Tue, 25 Feb 1997 22:24:16 -0600
From: "Mr. Somebody"
Subject: "Crazy Horses" by KMFDM
Crazy Horses - KMFDM
====================
-3rd track on the Godlike
single.
Transcribed by:
Gord Murdoch
([email protected]), modifed
by Josh Weiner ([email protected])
Notation:
3h5 : Hammer-on.
5p3 : Pull-off.
3b5 : Bend first note to the of the equivalent second note.
5r3 : Release the already bent note at the pitch written back
to the original note.
3/5 : Strike the first note and slide up to the second note.
5\3 : Strike the first note and slide down to the second note.
. : Palm mute.
a.h.: Artificial harmonic.
n.h.: Natural harmonic.
~ : Let note ring.
/\/\: Whammy bar.
Intro / Main Riff:
E-|-------------|-------------|-------------|------------|
B-|-------------|
-------------|-------------|------------|
G-|-------------|-------------|---
----------|------------| Repeat
D-|-------------|-------------|-------------|-5-----5/6--| 4
times
A-|-------------|-------------|-------------|-3-----3/4--|
E-|-3-3-3-6
p3-3-|-3-3-3-6p3-3-|-3-3-3-6p3-3-|---3-3------|
. . . . . . . . . . . . . . . . .
Bridge:
E-|-------------|-------------|-------------|
B-|-------------|-------------
|-------------|
G-|-------------|-------------|-------------|
D-|-8~---/\/\-
--|-10~---/\/\--|-5~---/\/\---|
A-|-6~---/\/\---|--8~---/\/\--|-3~---/\/\---
|
E-|-------------|-------------|-------------|

E-|-------------|-------------|-------------|
B-|-------------|-------------
|-------------|
G-|-------------|-------------|-------------|
D-|-8~---/\/\-
--|-10~---/\/\--|-6~---/\/\---|
A-|-6~---/\/\---|--8~---/\/\--|-4~---/\/\---
|
E-|-------------|-------------|-------------|
Chorus fill (w/main riff behind it):
E-|--(16)-|--(16)-|
B-|-/20b~-|-/20b~-|
Return to main riff.
The solo and some fills are missing but please add or
correct anything
you can and include this file with it. Don't forget to
post it to
OLGA as well.
-The CosMIC mONster
"The quote of the day."





Ваше мнение



Капча