Tuning: drop C (C,G,C,F,A,D)
Here are the dif. riffs. Listen to the song and you'll get the hang of it.
d|-------------|-------------|
a|-------------|-------------|
f|-------------|-------------|
c|-3-3-4-4-0-1-|-3-3-4-4-0-1-|
g|-3-3-4-4-0-1-|-3-3-4-4-0-1-|
c|-3-3-4-4-0-1-|-3-3-4-4-0-1-|
d|---------------|
a|---------------|
f|---------------|
c|-3-3-4-4-0-8/1-|
g|-3-3-4-4-0-8/1-|
c|-3-3-4-4-0-8/1-|
d|----------------------------------------------------------------|
a|----------------------------------------------------------------|
f|----------------------------------------------------------------|
c|-4-4-4-4-4-4-4-4-4-4-4-4-4-4-4-0-3-3-3-3-3-3-3-3-3-3-3-3-3-3-3-3|
g|-4-4-4-4-4-4-4-4-4-4-4-4-4-4-4-0-3-3-3-3-3-3-3-3-3-3-3-3-3-3-3-3|
c|-4-4-4-4-4-4-4-4-4-4-4-4-4-4-4-0-3-3-3-3-3-3-3-3-3-3-3-3-3-3-3-3|
d|------------------|
a|------------------|
f|------------------|
c|-1-1-4-3-3-3-3-3-3|
g|-1-1-4-3-3-3-3-3-3|
c|-1-1-4-3-3-3-3-3-3|
|pm-|
d|-----------------------------|
a|-----------------------------|
f|-----------------------------|
c|-3-2-2-2-2-2-0-7-7-7-7-7-7-7-|
g|-3-2-2-2-2-2-0-7-7-7-7-7-7-7-|
c|-3-2-2-2-2-2-0-7-7-7-7-7-7-7-|

d|-----------|
a|-----------|
f|-----------|
c|-3/4-X-X-1-|
g|-3/4-X-X-1-|
c|-3/4-X-X-1-|




Ваше мнение



Капча