Normal tuning
--------------------
--------------------
--------------------
--------------------
-5--5--6-6---2--3---
-3--3--4-4---0--1---
--------------------
--------------------
--------------------
--------------------
-5-5-5--6-6---2--3--
-3-3-3--4-4---0--1--
u repeat that, and thats bout it for the solo, i kno the entire song but im 2
lazy to write the entire thing, buts its with power chords, no all the same tabs,
and if a beginner dont know how to properly tune the guitar, then this version can
help a lil. remember, jsut have fun playing!




Ваше мнение



Капча