Name: Gary
Tabs: Artist: Kittie
Album: Spit
Song: Trippin'
Tabbed By: LostText
Email: [email protected]
notation
p = palm mute
H = Hammer On
P = Pull Off
h = harmonic
/ = slide up
= slide down
* = important stuff
Tuning: C G C F A D (Drop whole guitar down a full step, then drop D
down to C)
Intro
WHOA!...
|--------------------|--------------------|
|--------------------|--------------------|
|--------------------|--------7---------8-| X 3
|--------------------|--------7---------8-|
|--------------------|-0-0--0-5--0-0--0-6-|
|--------------------|-0-0--0----0-0--0---|
p..... p.....
|--------------------|------------|
|--------------------|------------|
|--------7---------8-|------------|
|--------7---------8-|----------|
|-0-0--0-5--0-0--0-6-|----------|
|-0-0--0----0-0--0---|----------|
p..... p..... Let Ring
Verse:
|----------------------|
|----------------------|
|------------------3-4-|
|-0-0--0-0-0--1-1------|
|-0-0--0-0-0--1-1------|
|-0-0--0-0-0--1-1------|
p..
Chorus(sort of):
|-------------------------|-------------------|----------|
|-------------------------|-------------------|----------|
|-------------------------|-------------------|----------|
|-------------------------|-------------------|----------|
|-5-7-5-7-5-7-5-7-8-8-8-8-|-5-7-7-5-7-5-7-5-7-|----------|
|-5-7-5-7-5-7-5-7-8-8-8-8-|-5-7-7-5-7-5-7-5-7-|-7--7--7--|
h h h
On the second half of the second chorus, the last measure goes like
this:
|-------------|--------------|
|-------------|--------------|
|-------------|--------------|
|----------0--|--------------|
|----------0--|--------------|
|-7--7--7--0--|----------7-7-|
h h h Let ring
then go immediately into this...
|--------------------------------|-------------------------------
|--------------------------------|-------------------------------
|--------------------------------|-------------------------------
|--------------------------------|-------------------------------
|--------------------------------|-------------------------------
|-0-7-8-0-7-8-0-7-8-0-7-8-0-7-8--|-0-7-8-0-7-8-0-7-8-0-7-8-0-7-6-
H H H H H H H H
|--------------------------------|-----------------------------|
|--------------------------------|-----------------------------|
|--------------------------------|-----------------------------|
|--------------------------------|-----------------7--3--5--2--|
|--------------------------------|-----------------7--3--5--2--|
|-0-7-8-0-7-8-0-7-8-0-7-8-0-7-8--|-0-7-8-0-7-8-0-8-7--3--5--2--|
H H H H H H
Then play this twice...
|-------------------------------|-------------------------------|
|-------------------------------|-------------------------------|
|-------------------------------|-------------------------------|
|-0-7-8-0-7-8-0-7-8-0-7-8-7--8--|-0-7-8-0-7-8-0-7-8-0-7-8-7--6--|
|-0-7-8-0-7-8-0-7-8-0-7-8-7--8--|-0-7-8-0-7-8-0-7-8-0-7-8-7--6--|
|-0-7-8-0-7-8-0-7-8-0-7-8-7--8--|-0-7-8-0-7-8-0-7-8-0-7-8-7--6--|
that whole part right there is messy. She does some stuff i could hear
but i couldn't make
out, so if anyone can figure out exactly whats going on, lemme know.
Any other questions
or comments, just email me.
---------------------------------------------------------------------------
.
an figure out exactly whats going on, lemme know. Any other questions
or comments, just email me.




Ваше мнение



Капча