This Town- Kittie & Jonathan Davis
CD: ????
Tabber: Mitchell ([email protected])
Tuning: Standard

A completely sweet song that's very easy to play!

Intro/Verse:
e -----------------------------------------------------
B -----------------------------------------------------
G -9--------------9------------------------------------
D -9--------------9---------------5--------------7--7--
A -7--------------7---------------5--------------7--7--
E ----0-0-0-0-0-0----0-0-0-0-0-0--3-3-3-3-3-3-3--5--5--

Pre-chorus:
e -----------------------------------------
B -----------------------------------------
G -9-9-9-9---------------------------------
D -9-9-9-9--5-5-5-5--7-7-7-7--9-9-9-9-9-9--
A -7-7-7-7--5-5-5-5--7-7-7-7--9-9-9-9-9-9--
E ----------3-3-3-3--5-5-5-5--7-7-7-7-7-7--

Chorus:
e ---------------------------------------------------------------------
B ---------------------------------------------------------------------
G -9-9-9-9-9-9-9-9--5-5-5-5-5-5-5-5--7-7-7-7-7-7-7-7--9-9-9-9-9-9-9-9--
D -9-9-9-9-9-9-9-9--5-5-5-5-5-5-5-5--7-7-7-7-7-7-7-7--9-9-9-9-9-9-9-9--
A -7-7-7-7-7-7-7-7--3-3-3-3-3-3-3-3--5-5-5-5-5-5-5-5--7-7-7-7-7-7-7-7--
E ---------------------------------------------------------------------

The bridge is just bass, drums and groans, so no more guitar parts!

Chords: G5: 355xxx A5: 577xxx B5: 799xxx C5: x355xx D5: x577xx E5: x799xx

Tab originally from http:diehardtabs.tripod.com




Ваше мнение



Капча