Artist: Kittie
Song: Spit
Tuning: CGCFAD
- = P.M.
|----------------- ---------
|----------------- ---------
|----------------- x7 ---------
|----------------- ---------
|----------------- ---------
|-0-2-1-0-2-1-0-3- -0-2-1-3-
|-----------
|-----------
|-----------
|-0---0---0-
|-0---0---0-
|-0---0---0-
|-----------------
|-----------------
|----------------- x16
|-----------------
|-0-2-1-0-2-1-0-3-
|-0-2-1-0-2-1-0-3-
|----------------------
|----------------------
|---------------------- x4
|-2-2-2-2-2-2-2-2-2--1-
|-2-2-2-2-2-2-2-2-2--1-
|-2-2-2-2-2-2-2-2-2--1-
- - - - - - -
|-----------------
|-----------------
|----------------- x4
|-----------------
|-----------------
|-0-2-1-0-2-1-0-3-
|-----------------
|-----------------
|----------------- x16
|-----------------
|-0-2-1-0-2-1-0-3-
|-0-2-1-0-2-1-0-3-
|----------------------
|----------------------
|---------------------- x4
|-2-2-2-2-2-2-2-2-2--1-
|-2-2-2-2-2-2-2-2-2--1-
|-2-2-2-2-2-2-2-2-2--1-
- - - - - - -
|-------------------------------------
|-7-7-7-7-7-7-7-7---7-7-7-7-7-7-7-7---
|------------------------------------- x2
|-------------------------------------
|-------------------------------------
|-------------------------------------
|------------------------
|------------------------
|------------------------
|------------------------
|------------------------
|-1-2--1-2--1-2--1-4-4-4-
|---
|-7-
|---
|---
|---
|---
|------------------------------
|------------------------------
|------------------------------ x8
|-1-1-1-1-1-1-1-1-1-1--4-4-4-4-
|-1-1-1-1-1-1-1-1-1-1--4-4-4-4-
|-1-1-1-1-1-1-1-1-1-1--4-4-4-4-
|-----------------
|-----------------
|----------------- x2
|-----------------
|-----------------
|-0-2-1-0-2-1-0-3-

made by: Cristofher Wikstrom Nickname: RUNE
Email: [email protected]




Ваше мнение



Капча