Ok, Here's my first attempt at tabbing, but it sounds PRETTY cool!

Tune to drop C on a 7 string... you won't need all 7 strings,
so you can use a reg. 6 string. There are 2 guitairs though.

^=hold

Gutair 1(BG):

1:-----------------------|--||
2:-----------------------|-o||
3:-----------------------|--||
4:-----------------------|--||
5:3-3-3-3-3-3-3-33-33----|-o||
6:1-1-1-1-1-1-1-11-11----|--||

Guitar 2:

1:--------------------------|--------------------------|
2:--------------------------|--------------------------|
3:--------------------------|--------------------------|
4:--------------------------|-14-14-12^----10-10-8^----|
5:--------------------------|-12-12-10^----8--8--6^----|
6:--------------------------|--------------------------|

1:--------------------------|--------------------------|
2:--------------------------|--------------------------|
3:--------------------------|--------------------------|
4:-9-9-7^-----11-11-11--12^-|-14-14-12^--9-9-7^--9-9-9^|
5:-7-7-5^------9--9--9--10^-|-12-12-10^--7-7-5^--7-7-7^|
6:--------------------------|--------------------------|




Ваше мнение



Капча