Kittie, Raven.
Tabbed by Cavan, [email protected]

Tuning- c-g-c-f-a-d

Intro
C|-2-2--------|------(other guitar)--|
G|-2-2--------|-2-2------------------|
C|-2-2--------|-2-2--0/2-2--0/2-2--0-|

Verse 1,2
(play 4x) (then play)
C|-2-2-x--0----|-2-3-2-0-|
G|-2-2-x-------|-2-3-2-0-|
C|-2-2-x--0----|-2-3-2-0-|

Pre-Chorus
G|--------------|
C|-/5-52/51-1-|

Chorus
C|-5-5-2-5-1-1-|
G|-5-5-2-5-1-1-|
C|-5-5-2-5-1-1-|

Verse 3
C|-------------------------|
G|-0-0-0-0-0--0-0-0-0-0--0-|
C|-0-0-0-0-0--0-0-0-0-0--0-|

Bridge
C|-----------------------------|
G|-1-0-1--1-0-1--1-0-1-2-1-0-1-|
C|-1-0-1--1-0-1--1-0-1-2-1-0-1-|




Ваше мнение



Капча