Что бы играть Kittie нужно настроить гитару таким образом:
сначала спускаем 6-ю струну до "D", затем все струны спускаем на полный шаг. Лично я не
заморачиваюсь, а просто состраиваю 4-ю и 6-ю(6-ю опускаем под 4-ю)
Вступление:
D------------------------------------------|
A------------------------------------------|
F|-9-x-x-x-x-9-x-x-x-x-9-x-x-10-x-x-x-x-10-10/12-12-10-|
C|-9-x-x-x-x-9-x-x-x-x-9-x-x-10-x-x-x-x-10-10/12-12-10-|
G|-7-x-x-x-x-7-x-x-x-x-7-x-x-8--x-x-x-x--8--8/10-10--8-|
C------------------------------------------|
(на куплет, тоже самое что и на вступление)
I look at her in that paper dress
I wonder why she won´t burn
She´s just a paperdoll, that´s all
Just a paperdoll
I dress her up, she knocks me down
I dress her up, she knocks me down
They try her on for size
She fits nice, one size fits all
They try her on for size
She fits nice, one size fits all
Припев:
D---------------|
A---------------|
F---------------|
C|-0/6-6-6-0--0/6-6-6-0-7-7-|
G|-0/6-6-6-0--0/6-6-6-0-7-7-|
C|-0/6-6-6-0--0/6-6-6-0-7-7-|
Now her soul is dead
Now her body´s raw
You can numb her pain
Куплет2(играется так же как и вступление):
Watch the blood run down her face
But don´t take notice
Watch the blood run down her arms
Please don´t take notice
I know you have her soul
And I see it in your eyes
She knows you have her soul
And she sees it in your eyes
Припев.
Конец:
D-----------------------------------|
A-----------------------------------|
F|-7-7-7-8/7-7-7-3-3-5-5-|-(5)-7~-------7---7---3---5-------|
C|-7-7-7-8/7-7-7-3-3-5-5-|-(5)-7~-------7---7---3---5---0-~-|
G|-5-5-5-6/5-5-5-1-1-3-3-|-(3)-5~-------5---5---1---3---0-~-|
C-------------------------------0-~-|
She wants you to eat her pain
She wants you to eat her remains
She wants you to eat her pain
She wants you to eat her remains




Ваше мнение



Капча