Kittie, Paper Doll.
Tabbed by Cavan, [email protected]

Tuning- cgcfad

Verse
D|--------------------------------------
A|--------------------------------------
F|-9-x-x-x-x-9-x-x-x-x-9-x-x-10-x-x-x-x-
C|-9-x-x-x-x-9-x-x-x-x-9-x-x-10-x-x-x-x-
G|--------------------------------------
C|--------------------------------------

---------------|-0-x-x-x-x-0-x-x-x-x-0-x-x-
---------------|-0-x-x-x-x-0-x-x-x-x-0-x-x-
-10-x-x-12--10-|---------------------------
-10-x-x-12--10-|-other guitar--------------
---------------|---------------------------
---------------|---------------------------

-1-x-x-x-x-1-x-x-2--1-|
-1-x-x-x-x-1-x-x-2--1-|
----------------------|
----------------------|
----------------------|
----------------------|

Chorus
C|--------------------------|
G|-0/6-6-6-0--0/6-6-6-0-7-7-|
C|-0/6-6-6-0--0/6-6-6-0-7-7-|

Bridge
F|-------------------------------------|
C|-5-5-5-5-5-6-5-5-5-5-1-1-1-1-3-3-3-3-|
G|-5-5-5-5-5-6-5-5-5-5-1-1-1-1-3-3-3-3-|
C|-5-5-5-5-5-6-5-5-5-5-1-1-1-1-3-3-3-3-|




Ваше мнение



Капча