RIFF A1
D:--------------------------------------------------|
A:--------------------------------------------------|
F:--------------------------------------------------|
C:------3--3------3--3------3--3------3--3----------|
G:------3--3------3--3------3--3------3--3----------|
C:------3--3------3--3------3--3------3--3----------|

RIFF A2
D:-----------------------------------------------------------------------|
A:-----------------------------------------------------------------------|
F:-----------------------------------------------------------------------|
C:------3--3--000----3--3--000----3--3--000----3--3--000-----------------|
G:------3--3--000----3--3--000----3--3--000----3--3--000-----------------|
C:------3--3--000----3--3--000----3--3--000----3--3--000-----------------|
PM === === === ===

RIFF A3 (Palm Mute)
D:---------------------------------------------|
A:---------------------------------------------|
F:---------------------------------------------|
C:------0--0--0--0--0--0--0--0--0--0--0--0-----|
G:------0--0--0--0--0--0--0--0--0--0--0--0-----|
C:------0--0--0--0--0--0--0--0--0--0--0--0-----|

RIFF B1
D:---------------------------------------------------------------|
A:---------------------------------------------------------------|
F:--------5--5--5----7--7--7---------5--5--5----7--7--7---000--8-|
C:--000---5--5--5----7--7--7---000---5--5--5----7--7--7---000--8-|
G:--000---3--3--3----5--5--5---000---3--3--3----5--5--5---000--6-|
C:--000---X--X--X----X--X--X---000---X--X--X----X--X--X---000--X-|
PM === === ===

RIFF C1 (Palm Mute)
D:-------------------------------------------------|
A:-------------------------------------------------|
F:-------------------------------------------------|
C:------3--3--3-----3--3--3----3--3--3----3--3--3--|
G:------3--3--3-----3--3--3----3--3--3----3--3--3--|
C:------3--3--3-----3--3--3----3--3--3----3--3--3--|

RIFF D1 (Do 2x)
D:--------------------------------------|
A:--------------------------------------|
F:--------------------------------------|
C:--0----7--5--6--0----0---7--5--6--0---|
G:--0----7--5--6--0----0---7--5--6--0---|
C:--0----7--5--6--0----0---7--5--6--0---|
PM = =

RIFF E1
D:--------------------------------------------|
A:--------------------------------------------|
F:--------------------------------------------|
C:--000------------------000------------------|
G:--000--3-H-4-H-5-------000--3-H-4-H-5-------|
C:--000------------------000------------------|
PM === ===

RIFF F1 Repeat 13x
D:-------------------------------------------------------------|-----------|
A:-------------------------------------------------------------|-----------|
F:-------------------------------------------------------------|-----------|
C:------3--3--3-----3--3--3----3--3--3----3--3--3--------------|--3333333--|
G:------3--3--3-----3--3--3----3--3--3----3--3--3--------------|--3333333--|
C:------3--3--3-----3--3--3----3--3--3----3--3--3--------------|--3333333--|
PM = = = = = = = = = = = =

SONG ORDER
RIFF A1 1x
RIFF A2 1x
RIFF A3 1x
RIFF B1 4x
RIFF C1 1x
RIFF B1 4x
RIFF C1 1x
RIFF D1 2x
RIFF A1 1x
RIFF A3 1x
RIFF B1 4x
RIFF C1 1x
RIFF B1 4x
RIFF C1 1x
RIFF D1 2x
RIFF E1 12x
RIFF F1 1x
RIFF B1 1x

Well that's about all... Sorry if it sucks.




Ваше мнение



Капча