KITTIE - JONNY
From the Album SPIT
Copyright 2000 ARTEMIS RECORDS
Version 1.0 - OCTOBER 2001
Transcribed by: death8699
For Questions, Comments, Newest Version, or Corrections contact
death8699: at [email protected]
Check Out Death Warp, With More Transcriptions On It:
http://www.sorrowsend.com/DeathWarp
Tablature Notation
------------------
. - palm mute / - slide up to
- slide down to ~ - vibrato
h - hammer on b - bend
p - pull off Suffixes for bend
ph - pinch harmonic f - full bend h - half bend
* - see comment r - release t - tap bend
X - percussion mute ~ - vibrato bend
@ - slight palm mute () - ghost note, sustained note
Tune Gtr down 1 whole step then drop D (C,G,C,F,A,D)
JONNY
Intro (one guitar) 2tx 2tx
|-----------------------------|-----------------------------------|
|-----------------------------|-----------------------------------|
|-----------------------------|-----------------------------------|Gtrs
|-----------------------------|-----------------------------------|I&II
|-1p0-0-1p0-0-1-1p0-0-1p0-0-1-|-----------------------------------|
|-1p0-0-1p0-0-1-1p0-0-1p0-0-1-|-0-1-0-0-1-0-0-1-0-1-0-0-1-0-0-1-0-|
. . . .
Riff A 4tx
|---------------------------------|
|---------------------------------|
|---------------------------------|Gtrs
|-1-----1-----1---1-----1---------|I&II
|-1-0-0-1-0-0-1-0-1-0-0-1-0-0-4---|
|---0-0---0-0---0---0-0---0-0-4---|
. . . . . . . . .
Riff B 2tx
|------------------------------------------------------------------------|
|------------------------------------------------------------------------|
|-----------------11---11-11---11-11------------------11---11-11---11-11-|Gtrs
|------------------------------------------------------------------------|I&II
|-5-4-0-7-5-4-5-4-9----9--9----9--9--5-4-0-7-5-4-5-4--9----9--9----9--9--|
|-5-4-0-7-5-4-5-4--------------------5-4-0-7-5-4-5-4---------------------|
Riff A 4tx
Riff C 3tx
|---------------------------------|------------------------------|
|---------------------------------|------------------------------|
|---------------------------------|------------------------------|
|---------------------------------|------------------------------|
|-0-0-0-0-0-0-0-0-7-0-0-7-0-0-7/8-|-0-0-0-0-0-0-0-0-7-0-0-7------|
|-0-0-0-0-0-0-0-0-7-0-0-7-0-0-7/8-|-0-0-0-0-0-0-0-0-7-0-0-7------|
. . . . . . . . . . . . . . . . . . . . . .
Riff B 2tx
Riff A 4tx
Riff B .5tx
*Next 4tx 4tx
|---------------------------------|---------------------------------|
|---------------------------------|---------------------------------|
|---------------------------------|---------------------------------|
|---------------------------------|---------------------------------|
|-5-4-0-7-5-4-5-4-5-4-0-7-5-4-5-4-|-5-4-0-7-5-4-5-4-5-4-0-7-5-4-5-4-|
|-5-4-0-7-5-4-5-4-5-4-0-7-5-4-5-4-|-5-4-0-7-5-4-5-4-5-4-0-7-5-4-5-4-|
. . . . . . . . . . . . . . . .
*First time one guitar only then second guitar joins.
Riff A 4tx
Riff B .5tx
End.
Check Out Death Warp, With More Transcriptions On It:
http://www.sorrowsend.com/DeathWar




Ваше мнение



Капча