KITTIE - DO YOU THINK I'M A WHORE?
From the Album SPIT
Copyright 2000 ARTEMIS RECORDS
Version 1.0 - OCTOBER 2001
Transcribed by: death8699
For Questions, Comments, Newest Version, or Corrections contact
death8699: at [email protected]
Check Out Death Warp, With More Transcriptions On It:
http://www.sorrowsend.com/DeathWarp
Tablature Notation
------------------
. - palm mute / - slide up to
- slide down to ~ - vibrato
h - hammer on b - bend
p - pull off Suffixes for bend
ph - pinch harmonic f - full bend h - half bend
* - see comment r - release t - tap bend
X - percussion mute ~ - vibrato bend
@ - slight palm mute () - ghost note, sustained note
Tune Gtr down 1 whole step then Drop D (C,G,C,F,A,D)
DO YOU THINK I'M A WHORE?
Intro (drums and vocals)
Riff A 4tx
|-----------------------------------------------------------------|
|-----------------------------------------------------------------|
|-----------------------------------------------------------------|Gtrs
|-----------------------------------------------------------------|I&II
|-2---2---2/3-0-2---2--0-32------2---2---2/3-0-2---2--0-32------|
|-2---2---2/3-0-2---2--0-32-0000-2---2---2/3-0-2---2--0-32-0000-|
@@@@ @@@@
Riff B 8tx
|---------------------------------|
|---------------------------------|
|---------------------------------|Gtrs
|---------------------------------|I&II
|---------------------------------|
|-3p0-5p0-2h3-0-3p0-5p0-2h3-*4444-|
|--|
*Natural harmonics.
Riff C 4tx
|-----------------------------------------------------|
|-----------------------------------------------------|
|-----------------------------------------------------|Gtrs
|-----------------------------------------------------|I&II
|-3--4-3---2--3-2---2-3-0---3--4-3---2--3-2---2-3-0---|
|-3--4-3---2--3-2---2-3-0---3--4-3---2--3-2---2-3-0---|
Riff A 4tx
Riff B 8tx
Riff A til fade
End.
Check Out Death Warp, With More Transcriptions On It:
http://www.sorrowsend.com/DeathWar




Ваше мнение



Капча