Kittie, Charlotte.
Tabbed by Cavan, [email protected]

Tuning-one full step down then drop the D
(c-g-c-f-a-d)

Intro
G|----4-4-4-4-|
C|----4-4-4-4-|

Verse
F|-----------------|
C|-0-0-0-0/4-4-4-4-|
G|-0-0-0-0/4-4-4-4-|
C|-0-0-0-0/4-4-4-4-|

Pre-Chorus
G|---------------------------|
C|-3-2-1-2--1-2--1-2--1-2-3--|

Chorus
F|---------------------------|
C|-3-2-1-2--1-2--1-2--1-2-3--|
G|-3-2-1-2--1-2--1-2--1-2-3--|
C|-3-2-1-2--1-2--1-2--1-2-3--|

Pre-Bidge
C|-0-0-0/4-4-4-4/5------------------|
G|-0-0-0/4-4-4-4/5--5-5-5-5-5-5-5-5-|
C|------------------5-5-5-5-5-5-5-5-|

Bridge
C|-0-0-0/4-4-4-4/5--5-5-5-5-5-5-5-5-|
G|-0-0-0/4-4-4-4/5--5-5-5-5-5-5-5-5-|
C|-0-0-0/4-4-4-4/5--5-5-5-5-5-5-5-5-|

Outro
C|-7-7-8-8-7-7-8-8------------------|
G|-7-7-8-8-7-7-8-8--0-0-1-1-0-0-1-1-|
C|------------------0-0-1-1-0-0-1-1-|




Ваше мнение



Капча