Song:Brackish
Artist:Kittie
Album:Spit
Transcribed by: Boris Zivkovic ([email protected])
Droped-D tuning transposed down one whole step(low to high:CGCFAD)
Intro:
play 3 times
|--------------------------------------------------|
|---------------17-----------------17--------18----|
|--15--15---15-----15---15-----15-------15---------|
|--------------------------------------------------|
|--------------------------------------------------|
|--------------------------------------------------|
then
|--------------------------------------------------|
|--------------------------------------------------|
|--15-------15---------15----15----15----15--------|
|--------------------------------------------------|
|--------------------------------------------------|
|--------------------------------------------------|
Chorus:
|------------------------------------|
|------------------------------------|
|------------------------------------|
|--0--1---0--1---0--1--0--1//6---6---|
|--0--1---0--1---0--1--0--1//6---6---|
|--0--1---0--1---0--1--0--1//6---6---|
Verse:
|------------------------|
|------------------------|
|------------------------|
|--0---0---1---0----0----|
|--0---0---1---0----0----|
|--0---0---1---0----0----|
Breakdown:
|-------------------|---------------0^-|
|-----3^---------3^-|-----3^--------5^-|
|-----5^---------5^-|-----5^-----------|
|--0-----0--0-0-----|--0-----0--0-0----|
|--0-----0--0-0-----|--0-----0--0-0----|
|--0-----0--0-0-----|--0-----0--0-0----|
P.M P.M.--| P.M. P.M.--|
.::BoRiS::ZiVkOvIc::.




Ваше мнение



Капча