From: [email protected] (Rob Schenk)
"Who wants to be Lonely"
by Kiss
Off the album, Asylum
Regular tuning
transcribed by Rob Schenk
intro
-----------------------
-----------------------
-----------------------
-----------------------
-----7--------5h7--(3X)--
-000---00000------------
-----------------------
-----------------------
-----------------------
-----------------------
-----7------------------
-000---0000-0000------
verse
-----------------------
-7----------------------
---7---9-----------------
-----9-9-----------------
-------7-----7-----------
-------0-000---0000-----
-----------------------
-7----------------------
---7---9-----------------
-----9-9-----------------
-------7-----7-----------
-------0-000---0000-----
-----------------------
-----------------------
-x-7-5-5--------------
-x-7-5-5---------------
-x-5-3-3--------------
----------------------
riff 1
-----------------------
-----------------------
--------------7------7-9--
--------------7------7h9---
--------------7------7-7--
-00000-00000---000------
-----------------------
-----------------------
-7-5-7---7-7-7-7-7-7-7-7--
-7-5-7---7-7-7-7-7-7-7-7--
-5-3-5---5-5-5-5-5-5-5-5--
-----------------------
chorus
-----------------------
-----------------------
-7-7-7-x---7/9-9-------
-7-7-7-x---7/9-9-------
-5-5-5-x---5/7-7-------
---------0--------------
-----------------------
-----------------------
----------------5-5-5-5/9-7-
-5-5-5-5-5-5/7-5-5-5-5/9-7-
-3-3-3-3-3-3/5-3-3-3-3/7-5-
-----------------------
presolo
-----------------------
-----5-----5---7----7------
-5-5--5---5--7--7----7-5--
-5-5---5-----7---7-----5--
-3-3----3----5----5----3---
-----------------------
-----------------------
-5----5------------------
--5----5-7-7------------
---5-----7-7------------
----3----5-5------------
-----------------------
rhythm during solo
-----------------------
-----------------------
---7-7-7-7-x-7/9---------
---7-7-7-7-x-7/9--(2X)---
---5-5-5-5-x-5/7---------
-0----------------------
-----------------------
-----------------------
-5-5-5-5-5-5-5/7----------5-7-
-5-5-5-5-5-5-5/7-(2X)-----5-7-
-3-3-3-3-3-3-3/5----------3-5-
-----------------------17/----
after solo
-----------------------
-----------------------
-----------------------
-----7------------------
-000---000000---------
-----------------------




Ваше мнение



Капча