Key:
/ = slide up
= slide down
b = bend (whole step)
b^ = bend (1/2 step)
b^^ = bend (1 1/2 steps)
pb = pre-bend
r = release-bend
t = tap with righthand finger
h = hammer-on
p = pull-off
~ = Vibrato
* = Natural Harmonic
#(#) = Trill
** = Artificial Harmonic
x = Dead notes (no pitch)
P.M. = Palm mute (- -> underneath indicates which notes)
() = Dive war
(/) = Release war
Tp = Tap wplectrum

I think this is accurate
Rhythm Fig. 1

Eb|----------------------------------------------------------|
Bb|----------------------------------------------------------|
Gb|-------------3------------------------3-------------------|
Db|-----------3---5~---5p3-------------3---5p3---------------|
Ab|-------3h5--------------5~------3h5---------5--3-1--------|
Eb|--3~-----------------------3~----------------------3-1----|

Rhythm Fig. 2a

Eb|----------------------------------------------------------|
Bb|----------------------------------------------------------|
Gb|----------------------------------------------------------|
Db|-----5-3-5---0----5-3-5-3--0------------------------------|
Ab|----------------------------------------------------------|
Eb|--3------------3------------------------------------------|

Rhythm Fig. 2b

Eb|----------------------------------------------------------|
Bb|----------------------------------------------------------|
Gb|----------------------5-3---------------------------------|
Db|-----5-3-5---0----5-3-5-3---------------------------------|
Ab|----------------------------------------------------------|
Eb|--3------------3------------------------------------------|

Rhythm Fig. 2c

Eb|----------------------------------------------------------|
Bb|----------------------------------------------------------|
Gb|----------------------------------------------------------|
Db|-----5-3-5---0----5-3-5-3---------------------------------|
Ab|----------------------------------------------------------|
Eb|--3------------3------------------------------------------|

Rhythm Fig. 2d

Eb|----------------------------------------------------------|
Bb|----------------------------------------------------------|
Gb|----------------------------------------------------------|
Db|-----5-3-5---0----5-3-5-3--0----5-3-5-3---5---------------|
Ab|----------------------------------------------------------|
Eb|--3------------3-------------3----------------------------|

Rhythm Fig. 3a

Eb|----------------------------------------------------------|
Bb|----------------------------------------------------------|
Gb|----------------------------------------------------------|
Db|-----5p3-5-------5p3-5-3----------------------------------|
Ab|----------------------------------------------------------|
Eb|--3-----------3-------------------------------------------|

Rhythm Fig. 3b

Eb|----------------------------------------------------------|
Bb|----------------------------------------------------------|
Gb|----------------------------------------------------------|
Db|-----5p3-5-------5p3-5-3------5p3-5-3---5--4--3-----------|
Ab|-------------------------------------------------5--4--3--|
Eb|--3-----------3------------3------------------------------|

Rhythm Fig. 4

Eb|----------------------------------------------------------|
Bb|----------------------------------------------------------|
Gb|----------------------------------------------------------|
Db|-----x-x-5--x-x----x-x-5--x-x-----------------------------|
Ab|-----x-x----x-x----x-x----x-x-----------------------------|
Eb|--3--x-x----x-x-3--x-x----x-x-----------------------------|

Rhythm Fig. 5a

Eb|----------------------------------------------------------|
Bb|--------------6----6--5----5------------------------------|
Gb|--5----5------5----5--5----5--------5--5------------------|
Db|--5----5------7----7--5----5--------5--5h7p5--------------|
Ab|--3----3------------------------5h7----------7------------|
Eb|----------------------------------------------------------|

Eb|----------------------------------------------------------|
Bb|--------------8----8--7----7------------------------------|
Gb|--7----7------7----7--7----7--------7---------------------|
Db|--7----7------9----9--7----7--------7---------------------|
Ab|--5----5------------------------7h9-----------------------|
Eb|-----------------------------------------0----------------|

Eb|--1-------------------------------------------------------|
Bb|--1-------------------------------------------------------|
Gb|--2-------------------------------------------------------|
Db|--3-------------------3---3---3--------------------------|
Ab|--3-------------------3---3---3--------------------------|
Eb|--1-------------------1---1---1--------------------------|

Rhythm Fig. 5b

Eb|----------------------------------------------------------|
Bb|--------------6----6--5----5------------------------------|
Gb|--5----5------5----5--5----5---------------5--------------|
Db|--5----5------7----7--5----5--------5--5h7----------------|
Ab|--3----3------------------------5h7-----------------------|
Eb|----------------------------------------------------------|

Eb|----------------------------------------------------------|
Bb|--------------8----8--7-----------------------------------|
Gb|--7----7------7----7--7------------7--9-9b-r9p7-----------|
Db|--7----7------9----9--7--------7h9--------------9---------|
Ab|--5----5-------------------7h9----------------------------|
Eb|----------------------------------------------------------|

Eb|----------------------------------------------------------|
Bb|----------------------------------------------------------|
Gb|--10------------------10--10--10-------------------------|
Db|--10------------------10--10--10-------------------------|
Ab|--8-------------------8---8---8--------------------------|
Eb|----------------------------------------------------------|

Rhythm Fig. 6a

Eb|----------------------------------------------------------|
Bb|----------------------------------------------------------|
Gb|-----3-------3------------3-------------------------------|
Db|-/5--3----5--3----5---/5--3----5--------------------------|
Ab|-/5-------5-------5---/5-------5--3-1---------------------|
Eb|--------------------------------------3--1--3--3----------|

Eb|----------------------------------------------------------|
Bb|----------------------------------------------------------|
Gb|-----3---3----3------------3------------------------------|
Db|-/5--3---3-5--3----5---/5--3----5-------------------------|
Ab|-/5--------5-------5---/5-------5--3-1--------------------|
Eb|---------------------------------------3--1--3------------|

Rhythm Fig. 6b

Eb|----------------------------------------------------------|
Bb|----------------------------------------------------------|
Gb|-----3---3---3------------3---3---------------------------|
Db|-/5-------5-------5---/5-------5--3-----------------------|
Ab|------------------------------------5-3--1--3-------------|
Eb|-----------------------------------------------3----------|

Eb|----------------------------------------------------------|
Bb|----------------------------------------------------------|
Gb|-----3---3----3------------3---3--------------------------|
Db|-/5--------5-------5---/5--------5--3---------------------|
Ab|--------------------------------------5-3--1--3-----------|
Eb|----------------------------------------------------------|

Rhythm Fig. 7a

Eb|----------------------------------------------------------|
Bb|----------------------------------------------------------|
Gb|----7p5-7------7p5-7-5------------------------------------|
Db|----------------------------------------------------------|
Ab|----------------------------------------------------------|
Eb|----------------------------------------------------------|

Rhythm Fig. 7b

Eb|----------------------------------------------------------|
Bb|----------------------------------------------------------|
Gb|----3p2-3------3p2-3-2------------------------------------|
Db|----------------------------------------------------------|
Ab|----------------------------------------------------------|
Eb|----------------------------------------------------------|

Rhythm Fig. 7c

Eb|----------------------------------------------------------|
Bb|----------------------------------------------------------|
Gb|----3p2-3------3p2-3-2------------------------------------|
Db|---------------------------5p3-5-3----5--4--3-------------|
Ab|-----------------------------------------------5--4--3----|
Eb|----------------------------------------------------------|

Rhythm Fig. 8

Eb|----------------------------------------------------------|
Bb|----------------------------------------------------------|
Gb|----------------------------------------------------------|
Db|--x--x-x-x-----x-x--x-----x-x-x-x---x-x-x-x--x------------|
Ab|--x--x-x-x-----x-x--x-----x-x-x-x---x-x-x-x--x------------|
Eb|--x--x-x-x-----x-x--x-----x-x-x-x---x-x-x-x--x------------|

Rhythm Fig. 9a

Eb|----------------------------------------------------------|
Bb|----------------------------------------------------------|
Gb|-----3---3----3------------3------/7~-------5~------------|
Db|-/5--3---3-5--3----5---/5--3----5-------------------------|
Ab|-/5--------5-------5---/5-------5-------------------------|
Eb|----------------------------------------------------------|

Eb|----------------------------------------------------------|
Bb|----------------------------------------------------------|
Gb|----------------------------------------------------------|
Db|--7~-------5~-------3~-------------------------------5---|
Ab|-----------------------------------------------------5---|
Eb|-----------------------------------------------------3---|

Rhythm Fig. 9b

Eb|----------------------------------------------------------|
Bb|----------------------------------------------------------|
Gb|-----3---3----3------------3---3--------------------------|
Db|-/5--------5-------5---/5--------5--5~------3~------------|
Ab|----------------------------------------------------------|
Eb|----------------------------------------------------------|

Eb|----------------------------------------------------------|
Bb|----------------------------------------------------------|
Gb|----------------------------------------------------------|
Db|-----------------------------------------------------5---|
Ab|--5~-------3~-------1~-------------------------------5---|
Eb|-----------------------------------------------------3---|

Riff 1
Eb|----------------------------------------------------------|
Bb|----------------------------------------------------------|
Gb|----------------------------------------------------------|
Db|----------------------------------------------------------|
Ab|----------------------------------------------------------|
Eb|--15-----------------------------------------------------|

Riff 2
Eb|----------------------------------------------------------|
Bb|--5b^-r5~-------------------------------------------------|
Gb|--5b^-r5~-------------------------------------------------|
Db|----------------------------------------------------------|
Ab|----------------------------------------------------------|
Eb|----------------------------------------------------------|

Riff 3
Eb|----------------------------------------------------------|
Bb|----------------------------------------------------------|
Gb|----------------------------------------------------------|
Db|----------------5-----------------------------------------|
Ab|----------------5-----------------------------------------|
Eb|--3~------------3-----------------------------------------|

Solo riff 1
Eb|--------15-----------------15-----------------------------|
Bb|--------15-----------------15-----------------------------|
Gb|--15-----------15----15-----------------------------------|
Db|--15h17--------15h17-15h17--------------------------------|
Ab|----------------------------------------------------------|
Eb|----------------------------------15---------------------|
< - 4x - > < - - 2x - - - >

Solo riff 2 (two guitars arranged for one)
Eb|-------15-15----------------------------------------------|
Bb|-------15-15--------18b-r18-18b-r18p15--------------------|
Gb|---------------------------------------18-17-15-----------|
Db|--/17----------15-------------------------------17-16-15--|
Ab|----------------------------------------------------------|
Eb|----------------------------------------------------------|
< - 3x - >
Eb|----------------------------------------------------------|
Bb|----------------------------------------------------------|
Gb|----------------------------------------------------------|
Db|----------------------------------------------------------|
Ab|--17-16-15-13----13~--------------------------------------|
Eb|--------------15------------------------------------------|

Solo riff 3
Eb|-----------15------------15------------15-----15----------|
Bb|-------15------------15-------------15--------------------|
Gb|--17b------------17b------------17b-------17b-------------|
Db|----------------------------------------------------------|
Ab|----------------------------------------------------------|
Eb|----------------------------------------------------------|
Let ring - > Let ring - > Let ring - - >
Eb|----------------------------------------------------------|
Bb|----------------------------------------------------------|
Gb|--17b-r17-15h17p15-14h15p14-12h14p12-10h12p10-9h10p9------|
Db|----------------------------------------------------------|
Ab|----------------------------------------------------------|
Eb|----------------------------------------------------------|

Eb|----------------------------------------------------------|
Bb|----------------------------------------------------------|
Gb|--7h9p7-5h7p5-3h5p3---------------------------------------|
Db|----------------------------------------------------------|
Ab|----------------------------------------------------------|
Eb|----------------------------------------------------------|

Eb|--0h3h6---------------------------------------------------|
Bb|--------0h3h6---------------------------------------------|
Gb|--------------0h3h5---------------------------------------|
Db|--------------------0h3-----------------------------------|
Ab|----------------------------------------------------------|
Eb|----------------------------------------------------------|




Ваше мнение



Капча