From: [email protected] (Rob Schenk)

Uh! All Night
by Kiss
Off the album, Asylum
Regular tuning
transcribed by Rob Schenk
----------------------
----------------------
-------------4/6-6-4----
-------------4/6---4-6--
-------------2/4---2-6--
-4444-4444----------4--
--------------
--------------
--4/6-6-4----
--4/6---4-6--
--2/4---2-6--
----------4--
--------------
--------------
--4/6-6-4----
--4/6---4-6--
--2/4---2-6--
----------4--
---------------------
-x-9-11-----13-------
-x-----11---13-------
-x-------11-13-------
------------11-------
---------------------
verse
---------------------
-----------------8-8h9--
-----------------8-8h8--
-8-10-8-10-8-10-8-8h10-
-6--6-6--6-6--6---------
---------------------
---------------------
-9-8-6-7-6----------------
-8-8-6-6-6----------------
10-8-6-8-6-6----------------
------------6---------
------------4---------
---------------------
-----------------8-8h9--
-----------------8-8h8--
-8-10-8-10-8-10-8-8h10-
-6--6-6--6-6--6---------
---------------------
---------------------
-9--9-8---------------
-8--8-8-4--8-8/11--8-8/11-
10-10-8-4--8-8/11--8-8/11-
---------2--6-6/9---6-6/9--
---------------------
prechorus
---------------------
-12-12-12-11---7-7-7-6-
-11-11-11-11-6-6-6-6-6-
-13-13-13-11-6-8-8-8-6-
--------------4-------
---------------------
---------------------
---------------------
-----6/4---------6/4----
-----4/2-6-------4/2-6--
-4-7-----4--4-7------4--
---------------------
----------------11--------13
------------x-----11------13-
-----6/4----x-------11/13-13-
-----4/2-6--x-9-----------11-
-4-7-----4--------------
presolo
-------------------
-------------------
-11----------------
-11-(9 X)-----------
--9----------------
-------------------




Ваше мнение



Капча