Sweet Pain by Kiss
Standard Tuning

G:----------|----------|----------|----------|
D:----------|----------|----------|----------|
A:----------|----------|----------|---2--2--2|
E:4--4--4--4|4--4--4--4|4--4--4--4|4---------|

G:----------|----------|----------|----------|
D:----------|----------|----------|----------| x2
A:----------|--4----4--|----------|-0-0--2-2-|
E:--2----2--|----------|--4----4--|----------|

G:----------|----------|
D:----------|----------|
A:----------|-------2-1|
E:0-0-0--5-4|2-2-2-----|

G:----------|----------|----------|----------|
D:----------|----------|----------|----------|
A:----------|4--4--4--4|----------|4--4--4--4|
E:4--4--4--4|----------|4--4--4--4|----------|

G:----------|----------|----------|----------|
D:----------|----------|----------|----------|
A:----------|4--4--4--4|----------|----------|
E:4--4--4--4|----------|4--4--4--4|2--2--2--2|

G:----------|----------|----------|----------|
D:----------|----------|----------|----------| x2
A:----------|--4----4--|----------|-0-0--2-2-|
E:--2----2--|----------|--4----4--|----------|

G:----------|----------|
D:----------|----------|
A:----------|-------2-1|
E:0-0-0--5-4|2-2-2-----|

G:----------|----------|----------|----------|
D:----------|----------|----------|----------|
A:----------|4--4--4--4|----------|4--4--4--4|
E:4--4--4--4|----------|4--4--4--4|----------|

G:----------|----------|----------|----------|
D:----------|----------|----------|----------|
A:----------|4--4--4--4|----------|----------|
E:4--4--4--4|----------|4--4--4--4|2--2--2~--|

G:----------|----------|----------|----------|
D:----------|----------|----------|----------|
A:----------|----------|-----2----|4---------|
E:0---0---2-|2--0--2--4|-4-------4|-----4----| |
|_x2
G:----------|----------|----------|----------| |
D:----------|----------|----------|----------| |
A:----------|----------|-----4----|2----4----| /
E:0---0---2-|2--0--2--4|4---------|----------|/

G:----------|----------|
D:----------|----------|
A:----------|-------2-1|
E:0-0-0--5-4|2-2-2-----|

G:----------|----------|
D:----------|----------|
A:----------|4--4--4--4|
E:4-4----4-4|----------|

G:----------|----------|----------|
D:----------|----------|----------|
A:----------|-------2-1|4~--------|
E:0-0-0--5-4|2-2-2-----|----------|

G:----------|----------|----------|----------|
D:----------|----------|----------|----------|
A:----------|4--4--4--4|----------|----------|
E:4--4--4--4|----------|4--4--4--4|2--2--2--2|

G:----------|----------|----------|----------|
D:----------|----------|----------|----------| x2
A:----------|--4----4--|----------|-0-0--2-2-|
E:--2----2--|----------|--4----4--|----------|

G:----------|----------|
D:----------|----------|
A:----------|-------2-1|
E:0-0-0--5-4|2-2-2-----|

G:----------|----------|----------|----------|
D:----------|----------|----------|----------| x6
A:----------|4--4--4--4|----------|----------| (the song then
E:4--4--4--4|----------|4--4--4--4|2--2--2--2| fades out)

Thanks, please rate it after you learn it.
Tabbed by:
_TheBassist01_




Ваше мнение



Капча