From: [email protected] (Rob Schenk)
Subject: Tab: Kiss "Shout It Out Loud"
Date: Tue Jun 7 10:36:55 CDT 1994

Shout It Out Loud

by Kiss from the album, Destroyer

intro

----------------------------------------------------
-13-13b-13-13b-13br-11v---------------------------
---------------------------------------8-----8-----
-----------------------------10-10-10-8--8--8--8----
-----------------------------10-10-10-6--8--6--8---
------------------------------8--8--8----6------6---

rhythm

------------------------------------------------------------
-8--9-8--9--8---9-8--9--3-3-4-4-4-4-3--6-6--8-8-8-6-6-8--
-8--8-8--8--8---8-8--8--3-3-3-3-3-3-3--5-5--5-5-5-5-6-8--
-8-10-8-10--8--10-8-10--3-3-5-5-5-5-3--7-7-7-7-7-7-6-8---
------------------------------------------------------------
------------------------------------------------------------

------------------------------------
-5-6-5-6----5-6-5-----6/8-8/------
-5-5-5-5----5-5-5--3--5/7-7/------
-5-7-5-7----5-7-5--3--------------
--------------------1---------------
------------------------------------

solo rhythm

---------------------------------------------------------------
-8--9-8--8--8---9--9--9--8--3-4-3-6-6--8-8-8-8-8-6----------
-8--8-8--8--8---8--8--8--8--3-3-3-5-5--5-5-5-5-5-5----------
-8-10-8--8--8--10-10-10--8--3-5-3-7-7-7-7-7-7-7-7--10-10-10
------------------------------------------------------10-10-10
-------------------------------------------------------8--8--8-

ending rhythm

-----------------------------6-5/7-7-7---
-5-5-6-6--5-5-6-6----3-6-3-6-6/8-8-8---
-5-5-5-5--5-5-5-5----3-5-3-3-5/7-7-7---
-5-5-7-7--5-5-7-7----3-3-3-3-----------
-----------------------------------------
-----------------------------------------




Ваше мнение



Капча