Shout It Out Loud
as performed by KISS
from the album DESTROYER
written by G. Simmons, P. Stanley, B. Ezrin
transcribed by B. Priddle
Here is a classic from Destroyer, one of the best albums ever.
It's a pretty cool tune, and usually goes well at parties.

Intro Riff
--10--12--10--12--10-12-10-8--|--10--12--10--12--10-12-10--|
------------------------------|----------------------------|
------------------------------|----------------------------|
------------------------------|----------------------------|
--13--12--10--------------|
--------------13--12--10--|
--------------------------|
--------------------------|

Riff 1:
Repeat this twice:
------------------|----------------------| * indicates
------------------|----------------------| played second
------------------|--4------4------------| through
--6--6-6--6--6-6--|----4-4----4-4--(6)*--|
Riff 2:
----------------------|-------------------------|
----------------------|-------------------------|
--4--------4----------|-------3-4-6-6----6---6--|
----6--4-6----6--4-6--|--4-4-----------6---6----|
Riff 3:
Repeat bar 1 of riff 2 and add:
--------------|
--------------|
--------------|
--4-4--4-6----|
Riff 4:
-----------------------------------|-----------------------|
-----------------------------------|--6--5-----------------|
-----------------------------------|--------8--6--5-6-5----|
--6-6-6-6-6-6-6-6-6-6-6-6-6-6-6-6--|--------------------8--|
-----------------------------------|------|
-----------------------------------|------|
-----------------------------------|------|
--6-6-6-6-6-6-6-6-6-6-6-6-6-6-6-6--|--4---|

[Intro Riff]
[Riff 1]
Well the night's begun and you want some fun
Do you think you're gonna find it
You got to treat yourself like number one
Do you need to be reminded
[Riff 2]
It doesn't matter what you do or say
Just forget the things that you've been told
[Riff 3]
We can't do it any other way
Everybody's got to rock and roll
CHORUS:
[Riff 4]
Shout it, shout it, shout it out loud
Shout it, shout it, shout it out loud
If you don't feel good, there's a way you could
Don't sit there broken hearted
Call all your friends in the neighbourhood
And get the party started
Don't let them tell you that there's too much noise
They're too old to really understand
You'll still get rowdy with the girls and boys
'Cause it's time for you to take a stand
CHORUS
GUITAR SOLO
[Riff 2]
[Riff 3]
CHORUS
If you have any questions, comments, or suggestions, please send
them to [email protected]
Submitted by: Blaine Priddle ([email protected])




Ваше мнение



Капча