Date: Wed, 12 Jan 1994 10:55:30 +0000
From: [email protected] (Rob Schenk)
Subject: TAB: "She" by Kiss tab
I'm new to the net and am not sure how to post, so I'll forward this
to you to put in the nevada archives.
If you could post on alt.guitar.tab or rec.music.guitar, I would
appreciate it.
Rob
"She" by Kiss
from the album Dressed To Kill
Tune down 1/2 step (Eb, Ab, etc.)
Intro
--------------------------------------------------------------------------
--------------------------------------------------------------------------
---------------12---12-------------------------------------------------
--5---5-------12---12-------------------3-----------------3----------
--5---5-------10---10-----3---4---5--------5---3---4-------5-----
--3---3------------------------------------------------------------------
------------------------------------------------------------------
------------------------------------------------------------------
----------12---12----------------------------------------------
-5---5---12---12------------------3-----------------3--------
-5---5---10---10----3---4---5-------5---3---4--------5---
-3---3-----------------------------------------------------------
------------------------------------------------------------------------
------------------------------------------------------------------------
------------------------------------------------------------------------
--5---5---8---5---5---10-----------------3--------5---3-------3--
--5---5---8---5---5---10---3---4---5--------5------------5------
--3---3---6---3---3---8---------------------------------------------
------------------------------------------------------------------------
------------------------------------------------------------------------
------------------------------------------------------------------------
-5---5---8---8---5---5---10----------------3-----------------3-
-5---5---8---8---5---5---10---3---4---5-------5---3---4------5
-3---3---6---6---3---3---8-----------------------------------------
Lyrics start.... She walks by moonlight.....
----------------------------------------------------------------------------
----------------------------------------------------------------------------
----------------------------------------------------------------------------
--5---5------------------3----------------------3---------5----------------
--5---5----3---4---5--------5---3---4---5--------5----5----------------
--3---3----------------------------------------------------3----------------
Lyrics start.... I know she's going...
----------------------------------------------------------------------------
----------------------------------------------------------------------------
-2---2---2---2---2---2---2-----2--2---------------------------------------------
-2---2---2---2---2---2---2-----2--2---------------------------------------------
-0---0---0---0---0---0---0-----0--0---------------------------------------------
----------------------------------------------------------------------------
Interlude
----------------------------------------------------------------------------
----------------------------------------------------------------------------
----------------------------------------------------------------------------
----------------------------------------------------------------------------
--5---5---5---3---5---5---5---3-----------------3-------5---3--------3----
--5---5------------5---5-------------3---4---5-------5------------5---------
--3---3------------3---3----------------------------------------------------
----------------------------------------------------------------------------
----------------------------------------------------------------------------
----------------------------------3----------------------------------------3
--5---5---5---3---------------------5---5---5---5---3---------------------------
--5---5------------5---3---5------------5---5------------5---3---5-------------
--3---3-----------------------------------3---3-----------------------------
Rhythm guitar right before solo
----------------------------------------------------------------------------
----------------------------------------------------------------------------
----------------------------------------------------------------------------
--8---10---5-----------------5-----------------5--------8---10------------------
--8---10---5-----------------5-----------------5--------8---10------------------
--6---8-----3---0---0---0---3---0---0---0---3---0---6---8--------------------
Outro
----------------------------------------------------------------------------
----------------------------------------------------------------------------
--9---9----------------------9---9---------------------------------------
--9---9-----------------3---9---9-----------------3---------------------
--7---7---3---4---5--------7---7---3---4---5-------------------------
----------------------------------------------------------------------------
Date: Sun, 14 Apr 1996 17:32:48 EDT
From: [email protected] ( VINCE JOSAPHS)
She: by Kiss
Tab Transcription by Vince Josaphs [email protected]
This is an easier way to play this great Kiss song. Actually, this
was written before Kiss was even started and they were still Wicked
Lester. Anyway...I didn't include the lyrics because I just don't
have the time and you probably already know them. I didn't incluse
the solo either but it is similar to the solo in the Door's Five to
One. Its an easy song.
Rhythm Figure 1
E---|--------------|----------------------------||--------------------
--
B---|--------------|-------0--3--0-------0--3---||--------------------
--
G---|--------9--9--|--2h3-----------2h3--------*||--------9-----------
--
D---|--2--2--9--9--|---------------------------*||--2--2--9--2--2-----
--
A---|--2--2--7--7--|----------------------------||--2--2--7--2--2-----
--
E---|--0--0--------|----------------------------||--0--0-----0--0-----
--
Solo
E-------|----------|--------0-----------|----------------0--3--0------
--
B-------|-------0--|--3--0-----3--0--3--|----------0--3-----------3---
--
G---12--|--2h3-----|--------------------|-----2h3---------------------
--
D---12--|----------|--------------------|--2--------------------------
--
A---10--|----------|--------------------|-----------------------------
--
E-------|----------|--------------------|-----------------------------
--
E---0--3--0-----0--3--0-----0-----------|--------------|--------------
--
B------------3-----------3-----3--0--3--|--------------|--0--0-----0--
--
G---------------------------------------|--------9--7--|--------2-----
--
D---------------------------------------|--2--2--9--7--|--------------
--
A---------------------------------------|--2--2--7--5--|--------------
--
E---------------------------------------|--0--0--------|--------------
--
Chorus
E---3--0--|-----------------------|--------------|--------------3--|--
--
B---------|-----------------------|--------------|--0--0-----0-----|--
--
G---------|--2--2--2--2--2--2--2--|--------9--7--|--------2--------|--
--
D---------|--2--2--2--2--2--2--2--|--2--2--9--7--|-----------------|--
--
A---------|--0--0--0--0--0--0--0--|--2--2--7--5--|-----------------|--
--
E---------|-----------------------|--0--0--------|-----------------|--
--
E------------|--------------------------------------|-----------------
--
B------------|--------------------------------------|-----------------
--
G------------|--------------------------------0--2--|-----------------
--
D---2--2--0--|--2--0--2--0--2--0--2--0--2--0--------|--2--2--0--2--0--
--
A------------|--------------------------------------|-----------------
--
E------------|--------------------------------------|-----------------
--
E---------------------------------|-----------------------------------
--
B---------------------------------|-----------------------------------
--
G---------------------------0--2--|-----------------------------------
--
D---2--0--2--0--2--0--2--0--------|--2--2-----2-----2-----2-----2-----
--
A---------------------------------|--2--2--0--2--0--2--0--2--0--2--0--
--
E---------------------------------|--0--0--0--0--0--0--0--0--0--0--0--
--
E----------------||-------------------|-------------------|-----------
--
B----------------||-------------0--3--|-------------0--3--|-----------
--
G---------------*||--9--9--2h3--------|--9--9--2h3--------|-----9--9--
--
D---2-----5--7--*||--9--9-------------|--9--9-------------|-----9--9--
--
A---2--0--5--7---||--7--7-------------|--7--7-------------|-----7--7--
--
E---0--0--3--5---||-------------------|-------------------|-----------
--
E------------------|-----------|-----------|--------------------------
--
B--------0-----3^--|-----------|-----------|--------------------------
--
G---2h3------------|-----------|--9--9--9--|--------------------------
--
D------------------|--2--2--2--|--9--9--9--|--------------------------
--
A------------------|--2--2--2--|--7--7--7--|--------------------------
--
E------------------|--0--0--0--|-----------|--------------------------
--
======================================================================
==
== Created with TABESTRY Tab Creation Software for Windows
==
== For more info email [email protected]
==
======================================================================
==
If you have any old Anthrax tabs, please post them or e-mail them to
me.
Keep Rockin [email protected]




Ваше мнение



Капча