From: [email protected] (Rainer Montag)
Subject: TAB and REQ:Rocket Ride from Kiss
this my new Version of "Rocket Ride" from the Kiss Alive2 album.
This updated version contains the ending solo(how i play it) of the song,
so only the solo in the middle of the song is left.
And that's my question: I have found out most pieces of the middle solo,
but I'm not sure about the part just before the end, which sounds to
me like a tapping part with (maybe) chorus effect. This is just another
tremendous riff of Ace I like to find out !
So if you people have ANY suggestions , please send me a mail, as I like
to finish this song.
Rocket Ride(from the KISS-LP "Alive II")
-----------
transcribed by Rainer Montag([email protected])
Tune guitar 1/2 step down
RhythmFig.1
F# G G# A A# B C C#
|---------------------------------------------------------------------|
|---------------------------------------------------------------------|
|---------------------------------------------------------------------|
|--4-/-/-/-5-/-/-/-6-/-/-/-7-/-/-/-8-/-/-/-9-/-/-/-10-/-/-/-11-/-/-/--|
|--4-/-/-/-5-/-/-/-6-/-/-/-7-/-/-/-8-/-/-/-9-/-/-/-10-/-/-/-11-/-/-/--|
|--2-/-/-/-3-/-/-/-4-/-/-/-5-/-/-/-6-/-/-/-7-/-/-/-8--/-/-/-9--/-/-/--|
RhythmFig.2
|------------------------------------------------|
|------------------------------------------------|
|------------------------------------------------|
|-------------5-------------------------------5--|
|---5-7-5-7-7-------5-7-5-7-7-5-----5-7-5-7-7----|
|------------------------------------------------|
RhythmFig.2a
|---------------------|
|---------------------|
|---------------------|
|---------5-----------|
|---5-6-7---------5---|
|-----------5-6-7-----|
RhythmFig.2b
|---------------------|
|---------------------|
|---------------------|
|---7-5---------------|
|-------7-6-5---------|
|-------------7-6-5---|
RhythmFig.3
F# B F# E F# B F# G G# A
|-----------------------------------------|
|-----------------------------------------|
|--------4-----------------4--------------|
|--4--4--4--4--4--2--4--4--4--4--5--6--7--|
|--4--4--2--4--4--2--4--4--2--4--5--6--7--|
|--2--2-----2--2--0--2--2-----2--3--4--5--|
RhythmFig.4
(s = slide)
C D C D C D D E D E D E F#
|------------------------------------------------------------|
|------------------------------------------------------------|
|--5-s-7--7--5--7--5--7----7-s-9--9--7--9--7--9----11---11---|
|--5-s-7--7--5--7--5--7----7-s-9--9--7--9--7--9----11---11---|
|--3-s-5--5--3--5--3--5----5-s-7--7--5--7--5--7----9----9----|
|------------------------------------------------------------|
RhythmFig.5
F# B F# B F# E B
|----------------------------------------|
|-------7-------7------------------------|
|--11---8---11--8---11----9-9-9-9-9------|
|--11---9---11--9---11----9-9-9-9-9---9--|
|---9--------9-------9----7-9-7-7-7---9--|
|-------------------------------------7--|
Final Solo :
|--------5---------------------------------------------------|
|------5---8P5------------------5-8--8P5-5-8-5-------8-10----|
|--7B9---------7-B9R7-5-7---5-7------------------7-9---------|
|------------------------------------------------------------|
|------------------------------------------------------------|
|------------------------------------------------------------|
/\/\/\
|--------8-9-10-8-9-10--10P9P8-10P8---------------------------------|
|-10-10-----------------------------10-10H13P10-------10-13--13-----|
|-----------------------------------------------12-12---------------|
|-------------------------------------------------------------------|
|-------------------------------------------------------------------|
|-------------------------------------------------------------------|
RhythmFig.6
A
|--5--|
|--5--|
|--6--|
|--7--|
|--7--|
|--5--|




Ваше мнение



Капча