Rock 'n' Roll All Nite by KISS
From the album Dressed To Kill
--------------------------------------------------------------------
e:---------------------------------------------------------------------------|
B:--7/8--8--7---7/8--7/8--7--------------------------------------------------|
G:--7/7--7--7---7/7--7/7--7-----9~-----------11-9------------9----------11-9-|
D:--7/9--9--7---7/9--7/9--7-----7~-----9--9--9--9--11-9------7----9--9--9--9-|
A:------------------------------0~-----7--7--7--7--7--7------0----7--7--7--7-|
E:-------------------------------------0--0--0--0--0--0-----------0--0--0--0-|e:---------------------------------------------------------------------------|
B:--------------------------------------------------------7/8--8--7---7/8--8-|
G:-----------7--7--9--7-----------------11-9--------------7/7--7--7---7/7--7-|
D:-11-9------7--7--7--7--9--7-----9--9--9--9--11-9--11----7/9--9--7---7/9--9-|
A:-7--7------5--5--5--5--5--5-----7--7--7--7--7--7--7------------------------|
E:-0--0----------------------------------------------------------------------|e:------------------------------------|
B:-7----------------------------------|
G:-7-----5--5--7--5---7--7--9--7--7---|
D:-7-----3--3--3--3---5--5--5--5--5---|
A:------------------------------------|
E:------------------------------------|
e:------------------------------------------|
B:------------------------------------------|
G:--2~--------------------------------------|
D:--2~--------------------------------------|
A:--0~--------------------------------------|
E:------------------------------------------|
similar patter w/D and E chordsLive ending
e:-----------------------------------|
B:----7b/7--5--7--5------------------|
G:----7b/7--5--7--5--7--5---------2~-|
D:-------------------7--5---------2~-|
A:-------------------------7-5-3--0~-|
E:-----------------------------------|
Da End
Cluck Cluck
I foung this tab somewhere
and decided to put it on
enjoy
Mookie
[email protected]




Ваше мнение



Капча