#----------------------------------PLEASE NOTE---------------------------------#
#This file is the author's own work and represents their interpretation of the #
#song. You may only use this file for private study, scholarship, or research. #
#------------------------------------------------------------------------------#
I wanna rock and roll all night
Kiss
by Brian S.
(this is in standard tuning)
Intro :
e--------------------------------|
b--------------------------------|
g-11~-11~-------11~~-/1----------|
d-11~-11~--11~--11~~-/1---6~-----|
a-9~~--9~--11~--9~~~-/1---6------|
e-9~~--9~--9~---9~~~-/1---4------|
e--------------------------------------------|
b--------------------------------------------|
g--------------------------------------------|
d-6~--6---8~~--8--6~--6--8~------------------|
a-6~--6---6~~--6--6~--6--6~------------------|
e-4~--4-----------4~--4----------------------|
verse 2x
e--------------------------------------------|
b--------------------------------------------|
g--------------------------------------------|
d-6~--6---8~~--8--6~--6--8~----11~~--11~~----|
a-6~--6---6~~--6--6~--6--6~----11~~--11~~----|
e-4~--4-----------4~--4--------9~~~--9-------|
e--------------------------------|
b--------------------------------|
g-11~-11~-------11~~-/1----------|
d-11~-11~--11~--11~~-/1---6~-----|
a-9~~--9~--11~--9~~~-/1---6------|
e-9~~--9~--9~---9~~~-/1---4------|
bridge :
e--------------------------------|
b--------------------------------|
g-9~~--9/-11~~~--11-------------|
d-9~~--9/-11~~~--11-------------|
a-7~~--7/-9~~~~--9--------------|
e--------------------------------|
chorus 4x (3rd & 4th time don?t play)
e----------------------------------------|
b----------------------------------------|
g----------------------------------------|
d--6~~~~~~---------------------------11~-|
a--6~~~~~~---------------------------11~-|
e--4~~~~~~---------------------------9~~-|
I? wanna rock and roll All Night-ight
e---------------------------------------|
b---------------------------------------|
g---------------------------------------|
d-11-11~-11-/13-------------------------|
a-11-11~-11-/13-------------------------|
e-9--9~--9--/11-------------------------|
And party every day?
e--------------------------------|
b--------------------------------|
g-11~-11~-------11~~-/1----------|
d-11~-11~--11~--11~~-/1---6~-----|
a-9~~--9~--11~--9~~~-/1---6------|
e-9~~--9~--9~---9~~~-/1---4------|
verse 2x
e--------------------------------------------|
b--------------------------------------------|
g--------------------------------------------|
d-6~--6---8~~--8--6~--6--8~----11~~--11~~----|
a-6~--6---6~~--6--6~--6--6~----11~~--11~~----|
e-4~--4-----------4~--4--------9~~~--9-------|
e--------------------------------|
b--------------------------------|
g-11~-11~-------11~~-/1----------|
d-11~-11~--11~--11~~-/1---6~-----|
a-9~~--9~--11~--9~~~-/1---6------|
e-9~~--9~--9~---9~~~-/1---4------|
e--------------------------------|
b--------------------------------|
g-9~~--9/-11~~~--11-------------|
d-9~~--9/-11~~~--11-------------|
a-7~~--7/-9~~~~--9--------------|
e--------------------------------|
bridge
Chorus
Solo
e------|-----4-|--------------------------------------|
b------|-----4-|--------------------------------------|
g--6-6b|--6b~~-|----licks in G# pentatonic------------|
d------|-------|--------------------------------------|
a------|-------|--------------------------------------|
e------|-------|--------------------------------------|
8x
Bridge - Chorus - bridge
End
e----------------------------|
b----------------------------|
g--6b-r6~~--4-6-4------------|
d------------------6-6~~--6~~|
a-------------------------6~~|
e-------------------------4~~|




Ваше мнение



Капча